ISO-10303-21;
HEADER;
FILE_DESCRIPTION((''),'1');
FILE_NAME('T:/02_3D_Field-HP\X2\FF71FF6FFF8CFF9F5916\X0\2013/02_Step_Field-HP\X2\FF71FF6FFF8CFF9F5916\X0\2013/66_\X2\FF71FF78FF7EFF7BFF98FF70\X0\/MPS13-09095_0910.stp','2017-02-20T06:22:14',(''),(''),'Spatial Interop R21 SP3','Kubotek KeyCreator 2011 V10.0.2 (22737)',' ');
FILE_SCHEMA(('automotive_design'));
ENDSEC;
DATA;
#1=MECHANICAL_DESIGN_GEOMETRIC_PRESENTATION_REPRESENTATION(' ',(#10,#11,#12,#13,#14,#15,#16,#17,#18,#19,#20,#21,#22,#23),#6);
#2=PRODUCT_DEFINITION_CONTEXT('',#24,'design');
#3=APPLICATION_PROTOCOL_DEFINITION('INTERNATIONAL STANDARD','automotive_design',1994,#24);
#4=PRODUCT_CATEGORY_RELATIONSHIP('NONE','NONE',#25,#26);
#5=SHAPE_DEFINITION_REPRESENTATION(#27,#28);
#6= (GEOMETRIC_REPRESENTATION_CONTEXT(3)GLOBAL_UNCERTAINTY_ASSIGNED_CONTEXT((#31))GLOBAL_UNIT_ASSIGNED_CONTEXT((#33,#34,#35))REPRESENTATION_CONTEXT('NONE','WORKSPACE'));
#10=STYLED_ITEM('',(#37,#38),#39);
#11=STYLED_ITEM('',(#40),#41);
#12=STYLED_ITEM('',(#42,#43),#44);
#13=STYLED_ITEM('',(#45,#46),#47);
#14=STYLED_ITEM('',(#48),#49);
#15=STYLED_ITEM('',(#50,#51),#52);
#16=STYLED_ITEM('',(#53,#54),#55);
#17=STYLED_ITEM('',(#56),#57);
#18=STYLED_ITEM('',(#58),#59);
#19=STYLED_ITEM('',(#60),#61);
#20=STYLED_ITEM('',(#62,#63),#64);
#21=STYLED_ITEM('',(#65,#66),#67);
#22=STYLED_ITEM('',(#68,#69),#70);
#23=STYLED_ITEM('',(#71),#72);
#24=APPLICATION_CONTEXT(' ');
#25=PRODUCT_CATEGORY('part','NONE');
#26=PRODUCT_RELATED_PRODUCT_CATEGORY('detail',' ',(#73));
#27=PRODUCT_DEFINITION_SHAPE('NONE','NONE',#74);
#28=ADVANCED_BREP_SHAPE_REPRESENTATION('Unnamed[1]',(#52,#75),#6);
#31=UNCERTAINTY_MEASURE_WITH_UNIT(LENGTH_MEASURE(1.0E-006),#33,'','');
#33= (CONVERSION_BASED_UNIT('MILLIMETRE',#78)LENGTH_UNIT()NAMED_UNIT(#81));
#34= (NAMED_UNIT(#83)PLANE_ANGLE_UNIT()SI_UNIT($,.RADIAN.));
#35= (NAMED_UNIT(#83)SOLID_ANGLE_UNIT()SI_UNIT($,.STERADIAN.));
#37=PRESENTATION_STYLE_ASSIGNMENT((#89));
#38=PRESENTATION_STYLE_ASSIGNMENT((#90));
#39=ADVANCED_FACE('Unnamed[1]',(#91,#92),#93,.T.);
#40=PRESENTATION_STYLE_ASSIGNMENT((#94));
#41=EDGE_CURVE('Unnamed[1]',#95,#95,#96,.T.);
#42=PRESENTATION_STYLE_ASSIGNMENT((#97));
#43=PRESENTATION_STYLE_ASSIGNMENT((#98));
#44=ADVANCED_FACE('Unnamed[1]',(#99,#100),#101,.T.);
#45=PRESENTATION_STYLE_ASSIGNMENT((#102));
#46=PRESENTATION_STYLE_ASSIGNMENT((#103));
#47=ADVANCED_FACE('Unnamed[1]',(#104,#105),#106,.T.);
#48=PRESENTATION_STYLE_ASSIGNMENT((#107));
#49=EDGE_CURVE('Unnamed[1]',#108,#108,#109,.T.);
#50=PRESENTATION_STYLE_ASSIGNMENT((#110));
#51=PRESENTATION_STYLE_ASSIGNMENT((#111));
#52=MANIFOLD_SOLID_BREP('Unnamed[1]',#112);
#53=PRESENTATION_STYLE_ASSIGNMENT((#113));
#54=PRESENTATION_STYLE_ASSIGNMENT((#114));
#55=ADVANCED_FACE('Unnamed[1]',(#115),#116,.T.);
#56=PRESENTATION_STYLE_ASSIGNMENT((#117));
#57=EDGE_CURVE('Unnamed[1]',#118,#118,#119,.T.);
#58=PRESENTATION_STYLE_ASSIGNMENT((#120));
#59=EDGE_CURVE('Unnamed[1]',#121,#121,#122,.T.);
#60=PRESENTATION_STYLE_ASSIGNMENT((#123));
#61=EDGE_CURVE('Unnamed[1]',#124,#124,#125,.T.);
#62=PRESENTATION_STYLE_ASSIGNMENT((#126));
#63=PRESENTATION_STYLE_ASSIGNMENT((#127));
#64=ADVANCED_FACE('Unnamed[1]',(#128),#129,.T.);
#65=PRESENTATION_STYLE_ASSIGNMENT((#130));
#66=PRESENTATION_STYLE_ASSIGNMENT((#131));
#67=ADVANCED_FACE('Unnamed[1]',(#132,#133),#134,.T.);
#68=PRESENTATION_STYLE_ASSIGNMENT((#135));
#69=PRESENTATION_STYLE_ASSIGNMENT((#136));
#70=ADVANCED_FACE('Unnamed[1]',(#137,#138),#139,.T.);
#71=PRESENTATION_STYLE_ASSIGNMENT((#140));
#72=EDGE_CURVE('Unnamed[1]',#141,#141,#142,.T.);
#73=PRODUCT('Unnamed[1]','Unnamed[1]','PART-Unnamed[1]-DESC',(#143));
#74=PRODUCT_DEFINITION('NONE','NONE',#144,#2);
#75=AXIS2_PLACEMENT_3D('',#145,#146,#147);
#78=LENGTH_MEASURE_WITH_UNIT(LENGTH_MEASURE(1.0),#148);
#81=DIMENSIONAL_EXPONENTS(1.0,0.0,0.0,0.0,0.0,0.0,0.0);
#83=DIMENSIONAL_EXPONENTS(0.0,0.0,0.0,0.0,0.0,0.0,0.0);
#89=SURFACE_STYLE_USAGE(.BOTH.,#149);
#90=CURVE_STYLE('',#150,POSITIVE_LENGTH_MEASURE(1000.0),#151);
#91=FACE_BOUND('',#152,.T.);
#92=FACE_BOUND('',#153,.T.);
#93=CONICAL_SURFACE('',#154,17.575,0.785398163397437);
#94=CURVE_STYLE('',#155,POSITIVE_LENGTH_MEASURE(1000.0),#156);
#95=VERTEX_POINT('',#157);
#96=CIRCLE('',#158,17.65);
#97=SURFACE_STYLE_USAGE(.BOTH.,#159);
#98=CURVE_STYLE('',#160,POSITIVE_LENGTH_MEASURE(1000.0),#161);
#99=FACE_BOUND('',#162,.T.);
#100=FACE_BOUND('',#163,.T.);
#101=CYLINDRICAL_SURFACE('',#164,17.65);
#102=SURFACE_STYLE_USAGE(.BOTH.,#165);
#103=CURVE_STYLE('',#166,POSITIVE_LENGTH_MEASURE(1000.0),#167);
#104=FACE_BOUND('',#168,.T.);
#105=FACE_OUTER_BOUND('',#169,.T.);
#106=PLANE('',#170);
#107=CURVE_STYLE('',#171,POSITIVE_LENGTH_MEASURE(1000.0),#172);
#108=VERTEX_POINT('',#173);
#109=CIRCLE('',#174,14.3624969482422);
#110=SURFACE_STYLE_USAGE(.BOTH.,#175);
#111=CURVE_STYLE('',#176,POSITIVE_LENGTH_MEASURE(1000.0),#177);
#112=CLOSED_SHELL('',(#55,#44,#39,#70,#47,#67,#64));
#113=SURFACE_STYLE_USAGE(.BOTH.,#178);
#114=CURVE_STYLE('',#179,POSITIVE_LENGTH_MEASURE(1000.0),#180);
#115=FACE_OUTER_BOUND('',#181,.T.);
#116=PLANE('',#182);
#117=CURVE_STYLE('',#183,POSITIVE_LENGTH_MEASURE(1000.0),#184);
#118=VERTEX_POINT('',#185);
#119=CIRCLE('',#186,17.65);
#120=CURVE_STYLE('',#187,POSITIVE_LENGTH_MEASURE(1000.0),#188);
#121=VERTEX_POINT('',#189);
#122=CIRCLE('',#190,17.5);
#123=CURVE_STYLE('',#191,POSITIVE_LENGTH_MEASURE(1000.0),#192);
#124=VERTEX_POINT('',#193);
#125=CIRCLE('',#194,9.72702109091917);
#126=SURFACE_STYLE_USAGE(.BOTH.,#195);
#127=CURVE_STYLE('',#196,POSITIVE_LENGTH_MEASURE(1000.0),#197);
#128=FACE_OUTER_BOUND('',#198,.T.);
#129=PLANE('',#199);
#130=SURFACE_STYLE_USAGE(.BOTH.,#200);
#131=CURVE_STYLE('',#201,POSITIVE_LENGTH_MEASURE(1000.0),#202);
#132=FACE_BOUND('',#203,.T.);
#133=FACE_BOUND('',#204,.T.);
#134=CONICAL_SURFACE('',#205,12.0447590195807,0.757664223142772);
#135=SURFACE_STYLE_USAGE(.BOTH.,#206);
#136=CURVE_STYLE('',#207,POSITIVE_LENGTH_MEASURE(1000.0),#208);
#137=FACE_BOUND('',#209,.T.);
#138=FACE_BOUND('',#210,.T.);
#139=CYLINDRICAL_SURFACE('',#211,17.5);
#140=CURVE_STYLE('',#212,POSITIVE_LENGTH_MEASURE(1000.0),#213);
#141=VERTEX_POINT('',#214);
#142=CIRCLE('',#215,17.5);
#143=PRODUCT_CONTEXT('',#24,'mechanical');
#144=PRODUCT_DEFINITION_FORMATION_WITH_SPECIFIED_SOURCE(' ','NONE',#73,.NOT_KNOWN.);
#145=CARTESIAN_POINT('',(0.0,0.0,0.0));
#146=DIRECTION('',(0.0,0.0,1.0));
#147=DIRECTION('',(1.0,0.0,0.0));
#148= (NAMED_UNIT(#81)LENGTH_UNIT()SI_UNIT(.MILLI.,.METRE.));
#149=SURFACE_SIDE_STYLE('',(#217));
#150=DRAUGHTING_PRE_DEFINED_CURVE_FONT('continuous');
#151=COLOUR_RGB('',0.0,1.0,0.0);
#152=EDGE_LOOP('',(#218));
#153=EDGE_LOOP('',(#219));
#154=AXIS2_PLACEMENT_3D('',#220,#221,#222);
#155=DRAUGHTING_PRE_DEFINED_CURVE_FONT('continuous');
#156=COLOUR_RGB('',0.0,1.0,0.0);
#157=CARTESIAN_POINT('',(-1.63490254253036E-015,17.65,26.6999847412109));
#158=AXIS2_PLACEMENT_3D('',#223,#224,#225);
#159=SURFACE_SIDE_STYLE('',(#226));
#160=DRAUGHTING_PRE_DEFINED_CURVE_FONT('continuous');
#161=COLOUR_RGB('',0.0,1.0,0.0);
#162=EDGE_LOOP('',(#227));
#163=EDGE_LOOP('',(#228));
#164=AXIS2_PLACEMENT_3D('',#229,#230,#231);
#165=SURFACE_SIDE_STYLE('',(#232));
#166=DRAUGHTING_PRE_DEFINED_CURVE_FONT('continuous');
#167=COLOUR_RGB('',0.0,1.0,0.0);
#168=EDGE_LOOP('',(#233));
#169=EDGE_LOOP('',(#234));
#170=AXIS2_PLACEMENT_3D('',#235,#236,#237);
#171=DRAUGHTING_PRE_DEFINED_CURVE_FONT('continuous');
#172=COLOUR_RGB('',0.0,1.0,0.0);
#173=CARTESIAN_POINT('',(-2.46519032881566E-031,14.3624969482422,2.66453525910038E-015));
#174=AXIS2_PLACEMENT_3D('',#238,#239,#240);
#175=SURFACE_SIDE_STYLE('',(#241));
#176=DRAUGHTING_PRE_DEFINED_CURVE_FONT('continuous');
#177=COLOUR_RGB('',0.0,1.0,0.0);
#178=SURFACE_SIDE_STYLE('',(#242));
#179=DRAUGHTING_PRE_DEFINED_CURVE_FONT('continuous');
#180=COLOUR_RGB('',0.0,1.0,0.0);
#181=EDGE_LOOP('',(#243));
#182=AXIS2_PLACEMENT_3D('',#244,#245,#246);
#183=DRAUGHTING_PRE_DEFINED_CURVE_FONT('continuous');
#184=COLOUR_RGB('',0.0,1.0,0.0);
#185=CARTESIAN_POINT('',(-1.51636980929673E-015,17.65,24.7641983035841));
#186=AXIS2_PLACEMENT_3D('',#247,#248,#249);
#187=DRAUGHTING_PRE_DEFINED_CURVE_FONT('continuous');
#188=COLOUR_RGB('',0.0,1.0,0.0);
#189=CARTESIAN_POINT('',(-1.50718495830312E-015,17.5,24.6141983035841));
#190=AXIS2_PLACEMENT_3D('',#250,#251,#252);
#191=DRAUGHTING_PRE_DEFINED_CURVE_FONT('continuous');
#192=COLOUR_RGB('',0.0,1.0,0.0);
#193=CARTESIAN_POINT('',(3.00038465791102E-016,9.72702109091917,-4.9));
#194=AXIS2_PLACEMENT_3D('',#253,#254,#255);
#195=SURFACE_SIDE_STYLE('',(#256));
#196=DRAUGHTING_PRE_DEFINED_CURVE_FONT('continuous');
#197=COLOUR_RGB('',0.0,1.0,0.0);
#198=EDGE_LOOP('',(#257));
#199=AXIS2_PLACEMENT_3D('',#258,#259,#260);
#200=SURFACE_SIDE_STYLE('',(#261));
#201=DRAUGHTING_PRE_DEFINED_CURVE_FONT('continuous');
#202=COLOUR_RGB('',0.0,1.0,0.0);
#203=EDGE_LOOP('',(#262));
#204=EDGE_LOOP('',(#263));
#205=AXIS2_PLACEMENT_3D('',#264,#265,#266);
#206=SURFACE_SIDE_STYLE('',(#267));
#207=DRAUGHTING_PRE_DEFINED_CURVE_FONT('continuous');
#208=COLOUR_RGB('',0.0,1.0,0.0);
#209=EDGE_LOOP('',(#268));
#210=EDGE_LOOP('',(#269));
#211=AXIS2_PLACEMENT_3D('',#270,#271,#272);
#212=DRAUGHTING_PRE_DEFINED_CURVE_FONT('continuous');
#213=COLOUR_RGB('',0.0,1.0,0.0);
#214=CARTESIAN_POINT('',(-1.97215226305253E-031,17.5,1.77635683940025E-015));
#215=AXIS2_PLACEMENT_3D('',#273,#274,#275);
#217=SURFACE_STYLE_FILL_AREA(#276);
#218=ORIENTED_EDGE('',*,*,#59,.F.);
#219=ORIENTED_EDGE('',*,*,#57,.T.);
#220=CARTESIAN_POINT('',(-1.51177738379993E-015,-3.02355476759985E-015,24.6891983035841));
#221=DIRECTION('',(-6.12323399573677E-017,-1.22464679914735E-016,1.0));
#222=DIRECTION('',(-1.23259516440783E-032,1.0,1.22464679914735E-016));
#223=CARTESIAN_POINT('',(-1.63490254253036E-015,-3.26980508506071E-015,26.6999847412109));
#224=DIRECTION('',(6.12323399573677E-017,1.22464679914735E-016,-1.0));
#225=DIRECTION('',(-1.23259516440783E-032,1.0,1.22464679914735E-016));
#226=SURFACE_STYLE_FILL_AREA(#277);
#227=ORIENTED_EDGE('',*,*,#57,.F.);
#228=ORIENTED_EDGE('',*,*,#41,.T.);
#229=CARTESIAN_POINT('',(-1.57563617591354E-015,-3.15127235182709E-015,25.7320915223975));
#230=DIRECTION('',(6.12323399573677E-017,1.22464679914735E-016,-1.0));
#231=DIRECTION('',(-1.23259516440783E-032,1.0,1.22464679914735E-016));
#232=SURFACE_STYLE_FILL_AREA(#278);
#233=ORIENTED_EDGE('',*,*,#49,.F.);
#234=ORIENTED_EDGE('',*,*,#72,.T.);
#235=CARTESIAN_POINT('',(-1.97215226305253E-031,15.9312484741211,1.77635683940025E-015));
#236=DIRECTION('',(6.12323399573677E-017,-1.60619800019877E-016,-1.0));
#237=DIRECTION('',(5.00797346793251E-033,1.0,-1.60619800019877E-016));
#238=CARTESIAN_POINT('',(-4.93038065763132E-032,-1.97215226305253E-031,8.88178419700125E-016));
#239=DIRECTION('',(6.12323399573676E-017,1.22464679914735E-016,-1.0));
#240=DIRECTION('',(-1.23259516440783E-032,1.0,1.22464679914735E-016));
#241=SURFACE_STYLE_FILL_AREA(#279);
#242=SURFACE_STYLE_FILL_AREA(#280);
#243=ORIENTED_EDGE('',*,*,#41,.F.);
#244=CARTESIAN_POINT('',(-1.63490254253036E-015,8.825,26.6999847412109));
#245=DIRECTION('',(-6.12323399573677E-017,-1.22464679914735E-016,1.0));
#246=DIRECTION('',(1.23259516440783E-032,-1.0,-1.22464679914735E-016));
#247=CARTESIAN_POINT('',(-1.51636980929673E-015,-3.03273961859346E-015,24.7641983035841));
#248=DIRECTION('',(6.12323399573677E-017,1.22464679914735E-016,-1.0));
#249=DIRECTION('',(-1.23259516440783E-032,1.0,1.22464679914735E-016));
#250=CARTESIAN_POINT('',(-1.50718495830312E-015,-3.01436991660625E-015,24.6141983035841));
#251=DIRECTION('',(6.12323399573677E-017,1.22464679914735E-016,-1.0));
#252=DIRECTION('',(-1.23259516440783E-032,1.0,1.22464679914735E-016));
#253=CARTESIAN_POINT('',(3.00038465791102E-016,6.00076931582203E-016,-4.9));
#254=DIRECTION('',(6.12323399573677E-017,1.22464679914735E-016,-1.0));
#255=DIRECTION('',(-1.23259516440783E-032,1.0,1.22464679914735E-016));
#256=SURFACE_STYLE_FILL_AREA(#281);
#257=ORIENTED_EDGE('',*,*,#61,.T.);
#258=CARTESIAN_POINT('',(3.00038465791102E-016,4.86351054545959,-4.9));
#259=DIRECTION('',(6.12323399573677E-017,1.22464679914735E-016,-1.0));
#260=DIRECTION('',(-1.23259516440783E-032,1.0,1.22464679914735E-016));
#261=SURFACE_STYLE_FILL_AREA(#282);
#262=ORIENTED_EDGE('',*,*,#61,.F.);
#263=ORIENTED_EDGE('',*,*,#49,.T.);
#264=CARTESIAN_POINT('',(1.50019232895551E-016,3.00038465791101E-016,-2.45));
#265=DIRECTION('',(-6.12323399573677E-017,-1.22464679914735E-016,1.0));
#266=DIRECTION('',(-1.23259516440783E-032,1.0,1.22464679914735E-016));
#267=SURFACE_STYLE_FILL_AREA(#283);
#268=ORIENTED_EDGE('',*,*,#72,.F.);
#269=ORIENTED_EDGE('',*,*,#59,.T.);
#270=CARTESIAN_POINT('',(-7.53592479151562E-016,-1.50718495830312E-015,12.3070991517921));
#271=DIRECTION('',(6.12323399573677E-017,1.22464679914735E-016,-1.0));
#272=DIRECTION('',(-1.23259516440783E-032,1.0,1.22464679914735E-016));
#273=CARTESIAN_POINT('',(0.0,0.0,0.0));
#274=DIRECTION('',(6.12323399573677E-017,1.22464679914735E-016,-1.0));
#275=DIRECTION('',(-1.23259516440783E-032,1.0,1.22464679914735E-016));
#276=FILL_AREA_STYLE('',(#284));
#277=FILL_AREA_STYLE('',(#285));
#278=FILL_AREA_STYLE('',(#286));
#279=FILL_AREA_STYLE('',(#287));
#280=FILL_AREA_STYLE('',(#288));
#281=FILL_AREA_STYLE('',(#289));
#282=FILL_AREA_STYLE('',(#290));
#283=FILL_AREA_STYLE('',(#291));
#284=FILL_AREA_STYLE_COLOUR('',#292);
#285=FILL_AREA_STYLE_COLOUR('',#293);
#286=FILL_AREA_STYLE_COLOUR('',#294);
#287=FILL_AREA_STYLE_COLOUR('',#295);
#288=FILL_AREA_STYLE_COLOUR('',#296);
#289=FILL_AREA_STYLE_COLOUR('',#297);
#290=FILL_AREA_STYLE_COLOUR('',#298);
#291=FILL_AREA_STYLE_COLOUR('',#299);
#292=COLOUR_RGB('',0.0,1.0,0.0);
#293=COLOUR_RGB('',0.0,1.0,0.0);
#294=COLOUR_RGB('',0.0,1.0,0.0);
#295=COLOUR_RGB('',0.0,1.0,0.0);
#296=COLOUR_RGB('',0.0,1.0,0.0);
#297=COLOUR_RGB('',0.0,1.0,0.0);
#298=COLOUR_RGB('',0.0,1.0,0.0);
#299=COLOUR_RGB('',0.0,1.0,0.0);
ENDSEC;
END-ISO-10303-21;
