ISO-10303-21;
HEADER;
FILE_DESCRIPTION((''),'1');
FILE_NAME('T:/02_3D_Field-HP\X2\FF71FF6FFF8CFF9F5916\X0\2013/02_Step_Field-HP\X2\FF71FF6FFF8CFF9F5916\X0\2013/66_\X2\FF71FF78FF7EFF7BFF98FF70\X0\/MPS13-08085_0809.stp','2017-02-20T06:19:06',(''),(''),'Spatial Interop R21 SP3','Kubotek KeyCreator 2011 V10.0.2 (22737)',' ');
FILE_SCHEMA(('automotive_design'));
ENDSEC;
DATA;
#1=MECHANICAL_DESIGN_GEOMETRIC_PRESENTATION_REPRESENTATION(' ',(#10,#11,#12,#13,#14,#15,#16,#17,#18,#19,#20,#21,#22,#23),#6);
#2=PRODUCT_DEFINITION_CONTEXT('',#24,'design');
#3=APPLICATION_PROTOCOL_DEFINITION('INTERNATIONAL STANDARD','automotive_design',1994,#24);
#4=PRODUCT_CATEGORY_RELATIONSHIP('NONE','NONE',#25,#26);
#5=SHAPE_DEFINITION_REPRESENTATION(#27,#28);
#6= (GEOMETRIC_REPRESENTATION_CONTEXT(3)GLOBAL_UNCERTAINTY_ASSIGNED_CONTEXT((#31))GLOBAL_UNIT_ASSIGNED_CONTEXT((#33,#34,#35))REPRESENTATION_CONTEXT('NONE','WORKSPACE'));
#10=STYLED_ITEM('',(#37,#38),#39);
#11=STYLED_ITEM('',(#40),#41);
#12=STYLED_ITEM('',(#42),#43);
#13=STYLED_ITEM('',(#44),#45);
#14=STYLED_ITEM('',(#46),#47);
#15=STYLED_ITEM('',(#48),#49);
#16=STYLED_ITEM('',(#50,#51),#52);
#17=STYLED_ITEM('',(#53),#54);
#18=STYLED_ITEM('',(#55,#56),#57);
#19=STYLED_ITEM('',(#58,#59),#60);
#20=STYLED_ITEM('',(#61,#62),#63);
#21=STYLED_ITEM('',(#64,#65),#66);
#22=STYLED_ITEM('',(#67,#68),#69);
#23=STYLED_ITEM('',(#70,#71),#72);
#24=APPLICATION_CONTEXT(' ');
#25=PRODUCT_CATEGORY('part','NONE');
#26=PRODUCT_RELATED_PRODUCT_CATEGORY('detail',' ',(#73));
#27=PRODUCT_DEFINITION_SHAPE('NONE','NONE',#74);
#28=ADVANCED_BREP_SHAPE_REPRESENTATION('Unnamed[1]',(#57,#75),#6);
#31=UNCERTAINTY_MEASURE_WITH_UNIT(LENGTH_MEASURE(1.0E-006),#33,'','');
#33= (CONVERSION_BASED_UNIT('MILLIMETRE',#78)LENGTH_UNIT()NAMED_UNIT(#81));
#34= (NAMED_UNIT(#83)PLANE_ANGLE_UNIT()SI_UNIT($,.RADIAN.));
#35= (NAMED_UNIT(#83)SOLID_ANGLE_UNIT()SI_UNIT($,.STERADIAN.));
#37=PRESENTATION_STYLE_ASSIGNMENT((#89));
#38=PRESENTATION_STYLE_ASSIGNMENT((#90));
#39=ADVANCED_FACE('Unnamed[1]',(#91,#92),#93,.T.);
#40=PRESENTATION_STYLE_ASSIGNMENT((#94));
#41=EDGE_CURVE('Unnamed[1]',#95,#95,#96,.T.);
#42=PRESENTATION_STYLE_ASSIGNMENT((#97));
#43=EDGE_CURVE('Unnamed[1]',#98,#98,#99,.T.);
#44=PRESENTATION_STYLE_ASSIGNMENT((#100));
#45=EDGE_CURVE('Unnamed[1]',#101,#101,#102,.T.);
#46=PRESENTATION_STYLE_ASSIGNMENT((#103));
#47=EDGE_CURVE('Unnamed[1]',#104,#104,#105,.T.);
#48=PRESENTATION_STYLE_ASSIGNMENT((#106));
#49=EDGE_CURVE('Unnamed[1]',#107,#107,#108,.T.);
#50=PRESENTATION_STYLE_ASSIGNMENT((#109));
#51=PRESENTATION_STYLE_ASSIGNMENT((#110));
#52=ADVANCED_FACE('Unnamed[1]',(#111,#112),#113,.T.);
#53=PRESENTATION_STYLE_ASSIGNMENT((#114));
#54=EDGE_CURVE('Unnamed[1]',#115,#115,#116,.T.);
#55=PRESENTATION_STYLE_ASSIGNMENT((#117));
#56=PRESENTATION_STYLE_ASSIGNMENT((#118));
#57=MANIFOLD_SOLID_BREP('Unnamed[1]',#119);
#58=PRESENTATION_STYLE_ASSIGNMENT((#120));
#59=PRESENTATION_STYLE_ASSIGNMENT((#121));
#60=ADVANCED_FACE('Unnamed[1]',(#122),#123,.T.);
#61=PRESENTATION_STYLE_ASSIGNMENT((#124));
#62=PRESENTATION_STYLE_ASSIGNMENT((#125));
#63=ADVANCED_FACE('Unnamed[1]',(#126,#127),#128,.T.);
#64=PRESENTATION_STYLE_ASSIGNMENT((#129));
#65=PRESENTATION_STYLE_ASSIGNMENT((#130));
#66=ADVANCED_FACE('Unnamed[1]',(#131),#132,.T.);
#67=PRESENTATION_STYLE_ASSIGNMENT((#133));
#68=PRESENTATION_STYLE_ASSIGNMENT((#134));
#69=ADVANCED_FACE('Unnamed[1]',(#135,#136),#137,.T.);
#70=PRESENTATION_STYLE_ASSIGNMENT((#138));
#71=PRESENTATION_STYLE_ASSIGNMENT((#139));
#72=ADVANCED_FACE('Unnamed[1]',(#140,#141),#142,.T.);
#73=PRODUCT('Unnamed[1]','Unnamed[1]','PART-Unnamed[1]-DESC',(#143));
#74=PRODUCT_DEFINITION('NONE','NONE',#144,#2);
#75=AXIS2_PLACEMENT_3D('',#145,#146,#147);
#78=LENGTH_MEASURE_WITH_UNIT(LENGTH_MEASURE(1.0),#148);
#81=DIMENSIONAL_EXPONENTS(1.0,0.0,0.0,0.0,0.0,0.0,0.0);
#83=DIMENSIONAL_EXPONENTS(0.0,0.0,0.0,0.0,0.0,0.0,0.0);
#89=SURFACE_STYLE_USAGE(.BOTH.,#149);
#90=CURVE_STYLE('',#150,POSITIVE_LENGTH_MEASURE(1000.0),#151);
#91=FACE_BOUND('',#152,.T.);
#92=FACE_BOUND('',#153,.T.);
#93=CYLINDRICAL_SURFACE('',#154,17.65);
#94=CURVE_STYLE('',#155,POSITIVE_LENGTH_MEASURE(1000.0),#156);
#95=VERTEX_POINT('',#157);
#96=CIRCLE('',#158,17.5);
#97=CURVE_STYLE('',#159,POSITIVE_LENGTH_MEASURE(1000.0),#160);
#98=VERTEX_POINT('',#161);
#99=CIRCLE('',#162,17.5);
#100=CURVE_STYLE('',#163,POSITIVE_LENGTH_MEASURE(1000.0),#164);
#101=VERTEX_POINT('',#165);
#102=CIRCLE('',#166,17.65);
#103=CURVE_STYLE('',#167,POSITIVE_LENGTH_MEASURE(1000.0),#168);
#104=VERTEX_POINT('',#169);
#105=CIRCLE('',#170,9.22991879693583);
#106=CURVE_STYLE('',#171,POSITIVE_LENGTH_MEASURE(1000.0),#172);
#107=VERTEX_POINT('',#173);
#108=CIRCLE('',#174,14.3624969482422);
#109=SURFACE_STYLE_USAGE(.BOTH.,#175);
#110=CURVE_STYLE('',#176,POSITIVE_LENGTH_MEASURE(1000.0),#177);
#111=FACE_BOUND('',#178,.T.);
#112=FACE_BOUND('',#179,.T.);
#113=CYLINDRICAL_SURFACE('',#180,17.5);
#114=CURVE_STYLE('',#181,POSITIVE_LENGTH_MEASURE(1000.0),#182);
#115=VERTEX_POINT('',#183);
#116=CIRCLE('',#184,17.65);
#117=SURFACE_STYLE_USAGE(.BOTH.,#185);
#118=CURVE_STYLE('',#186,POSITIVE_LENGTH_MEASURE(1000.0),#187);
#119=CLOSED_SHELL('',(#66,#39,#63,#52,#69,#72,#60));
#120=SURFACE_STYLE_USAGE(.BOTH.,#188);
#121=CURVE_STYLE('',#189,POSITIVE_LENGTH_MEASURE(1000.0),#190);
#122=FACE_OUTER_BOUND('',#191,.T.);
#123=PLANE('',#192);
#124=SURFACE_STYLE_USAGE(.BOTH.,#193);
#125=CURVE_STYLE('',#194,POSITIVE_LENGTH_MEASURE(1000.0),#195);
#126=FACE_BOUND('',#196,.T.);
#127=FACE_BOUND('',#197,.T.);
#128=CONICAL_SURFACE('',#198,17.575,0.785398163397437);
#129=SURFACE_STYLE_USAGE(.BOTH.,#199);
#130=CURVE_STYLE('',#200,POSITIVE_LENGTH_MEASURE(1000.0),#201);
#131=FACE_OUTER_BOUND('',#202,.T.);
#132=PLANE('',#203);
#133=SURFACE_STYLE_USAGE(.BOTH.,#204);
#134=CURVE_STYLE('',#205,POSITIVE_LENGTH_MEASURE(1000.0),#206);
#135=FACE_BOUND('',#207,.T.);
#136=FACE_OUTER_BOUND('',#208,.T.);
#137=PLANE('',#209);
#138=SURFACE_STYLE_USAGE(.BOTH.,#210);
#139=CURVE_STYLE('',#211,POSITIVE_LENGTH_MEASURE(1000.0),#212);
#140=FACE_BOUND('',#213,.T.);
#141=FACE_BOUND('',#214,.T.);
#142=CONICAL_SURFACE('',#215,11.796207872589,0.808576303381427);
#143=PRODUCT_CONTEXT('',#24,'mechanical');
#144=PRODUCT_DEFINITION_FORMATION_WITH_SPECIFIED_SOURCE(' ','NONE',#73,.NOT_KNOWN.);
#145=CARTESIAN_POINT('',(0.0,0.0,0.0));
#146=DIRECTION('',(0.0,0.0,1.0));
#147=DIRECTION('',(1.0,0.0,0.0));
#148= (NAMED_UNIT(#81)LENGTH_UNIT()SI_UNIT(.MILLI.,.METRE.));
#149=SURFACE_SIDE_STYLE('',(#217));
#150=DRAUGHTING_PRE_DEFINED_CURVE_FONT('continuous');
#151=COLOUR_RGB('',0.0,1.0,0.0);
#152=EDGE_LOOP('',(#218));
#153=EDGE_LOOP('',(#219));
#154=AXIS2_PLACEMENT_3D('',#220,#221,#222);
#155=DRAUGHTING_PRE_DEFINED_CURVE_FONT('continuous');
#156=COLOUR_RGB('',0.0,1.0,0.0);
#157=CARTESIAN_POINT('',(-1.50718495830312E-015,17.5,24.6141983035841));
#158=AXIS2_PLACEMENT_3D('',#223,#224,#225);
#159=DRAUGHTING_PRE_DEFINED_CURVE_FONT('continuous');
#160=COLOUR_RGB('',0.0,1.0,0.0);
#161=CARTESIAN_POINT('',(-1.97215226305253E-031,17.5,1.77635683940025E-015));
#162=AXIS2_PLACEMENT_3D('',#226,#227,#228);
#163=DRAUGHTING_PRE_DEFINED_CURVE_FONT('continuous');
#164=COLOUR_RGB('',0.0,1.0,0.0);
#165=CARTESIAN_POINT('',(-1.63490254253036E-015,17.65,26.6999847412109));
#166=AXIS2_PLACEMENT_3D('',#229,#230,#231);
#167=DRAUGHTING_PRE_DEFINED_CURVE_FONT('continuous');
#168=COLOUR_RGB('',0.0,1.0,0.0);
#169=CARTESIAN_POINT('',(3.00038465791102E-016,9.22991879693583,-4.9));
#170=AXIS2_PLACEMENT_3D('',#232,#233,#234);
#171=DRAUGHTING_PRE_DEFINED_CURVE_FONT('continuous');
#172=COLOUR_RGB('',0.0,1.0,0.0);
#173=CARTESIAN_POINT('',(-2.46519032881566E-031,14.3624969482422,2.66453525910038E-015));
#174=AXIS2_PLACEMENT_3D('',#235,#236,#237);
#175=SURFACE_SIDE_STYLE('',(#238));
#176=DRAUGHTING_PRE_DEFINED_CURVE_FONT('continuous');
#177=COLOUR_RGB('',0.0,1.0,0.0);
#178=EDGE_LOOP('',(#239));
#179=EDGE_LOOP('',(#240));
#180=AXIS2_PLACEMENT_3D('',#241,#242,#243);
#181=DRAUGHTING_PRE_DEFINED_CURVE_FONT('continuous');
#182=COLOUR_RGB('',0.0,1.0,0.0);
#183=CARTESIAN_POINT('',(-1.51636980929673E-015,17.65,24.7641983035841));
#184=AXIS2_PLACEMENT_3D('',#244,#245,#246);
#185=SURFACE_SIDE_STYLE('',(#247));
#186=DRAUGHTING_PRE_DEFINED_CURVE_FONT('continuous');
#187=COLOUR_RGB('',0.0,1.0,0.0);
#188=SURFACE_SIDE_STYLE('',(#248));
#189=DRAUGHTING_PRE_DEFINED_CURVE_FONT('continuous');
#190=COLOUR_RGB('',0.0,1.0,0.0);
#191=EDGE_LOOP('',(#249));
#192=AXIS2_PLACEMENT_3D('',#250,#251,#252);
#193=SURFACE_SIDE_STYLE('',(#253));
#194=DRAUGHTING_PRE_DEFINED_CURVE_FONT('continuous');
#195=COLOUR_RGB('',0.0,1.0,0.0);
#196=EDGE_LOOP('',(#254));
#197=EDGE_LOOP('',(#255));
#198=AXIS2_PLACEMENT_3D('',#256,#257,#258);
#199=SURFACE_SIDE_STYLE('',(#259));
#200=DRAUGHTING_PRE_DEFINED_CURVE_FONT('continuous');
#201=COLOUR_RGB('',0.0,1.0,0.0);
#202=EDGE_LOOP('',(#260));
#203=AXIS2_PLACEMENT_3D('',#261,#262,#263);
#204=SURFACE_SIDE_STYLE('',(#264));
#205=DRAUGHTING_PRE_DEFINED_CURVE_FONT('continuous');
#206=COLOUR_RGB('',0.0,1.0,0.0);
#207=EDGE_LOOP('',(#265));
#208=EDGE_LOOP('',(#266));
#209=AXIS2_PLACEMENT_3D('',#267,#268,#269);
#210=SURFACE_SIDE_STYLE('',(#270));
#211=DRAUGHTING_PRE_DEFINED_CURVE_FONT('continuous');
#212=COLOUR_RGB('',0.0,1.0,0.0);
#213=EDGE_LOOP('',(#271));
#214=EDGE_LOOP('',(#272));
#215=AXIS2_PLACEMENT_3D('',#273,#274,#275);
#217=SURFACE_STYLE_FILL_AREA(#276);
#218=ORIENTED_EDGE('',*,*,#54,.F.);
#219=ORIENTED_EDGE('',*,*,#45,.T.);
#220=CARTESIAN_POINT('',(-1.57563617591354E-015,-3.15127235182709E-015,25.7320915223975));
#221=DIRECTION('',(6.12323399573677E-017,1.22464679914735E-016,-1.0));
#222=DIRECTION('',(-1.23259516440783E-032,1.0,1.22464679914735E-016));
#223=CARTESIAN_POINT('',(-1.50718495830312E-015,-3.01436991660625E-015,24.6141983035841));
#224=DIRECTION('',(6.12323399573677E-017,1.22464679914735E-016,-1.0));
#225=DIRECTION('',(-1.23259516440783E-032,1.0,1.22464679914735E-016));
#226=CARTESIAN_POINT('',(0.0,0.0,0.0));
#227=DIRECTION('',(6.12323399573677E-017,1.22464679914735E-016,-1.0));
#228=DIRECTION('',(-1.23259516440783E-032,1.0,1.22464679914735E-016));
#229=CARTESIAN_POINT('',(-1.63490254253036E-015,-3.26980508506071E-015,26.6999847412109));
#230=DIRECTION('',(6.12323399573677E-017,1.22464679914735E-016,-1.0));
#231=DIRECTION('',(-1.23259516440783E-032,1.0,1.22464679914735E-016));
#232=CARTESIAN_POINT('',(3.00038465791102E-016,6.00076931582203E-016,-4.9));
#233=DIRECTION('',(6.12323399573677E-017,1.22464679914735E-016,-1.0));
#234=DIRECTION('',(-1.23259516440783E-032,1.0,1.22464679914735E-016));
#235=CARTESIAN_POINT('',(-4.93038065763132E-032,-1.97215226305253E-031,8.88178419700125E-016));
#236=DIRECTION('',(6.12323399573677E-017,1.22464679914735E-016,-1.0));
#237=DIRECTION('',(-1.23259516440783E-032,1.0,1.22464679914735E-016));
#238=SURFACE_STYLE_FILL_AREA(#277);
#239=ORIENTED_EDGE('',*,*,#43,.F.);
#240=ORIENTED_EDGE('',*,*,#41,.T.);
#241=CARTESIAN_POINT('',(-7.53592479151562E-016,-1.50718495830312E-015,12.3070991517921));
#242=DIRECTION('',(6.12323399573677E-017,1.22464679914735E-016,-1.0));
#243=DIRECTION('',(-1.23259516440783E-032,1.0,1.22464679914735E-016));
#244=CARTESIAN_POINT('',(-1.51636980929673E-015,-3.03273961859346E-015,24.7641983035841));
#245=DIRECTION('',(6.12323399573677E-017,1.22464679914735E-016,-1.0));
#246=DIRECTION('',(-1.23259516440783E-032,1.0,1.22464679914735E-016));
#247=SURFACE_STYLE_FILL_AREA(#278);
#248=SURFACE_STYLE_FILL_AREA(#279);
#249=ORIENTED_EDGE('',*,*,#47,.T.);
#250=CARTESIAN_POINT('',(3.00038465791102E-016,4.61495939846791,-4.9));
#251=DIRECTION('',(6.12323399573677E-017,1.22464679914735E-016,-1.0));
#252=DIRECTION('',(-1.23259516440783E-032,1.0,1.22464679914735E-016));
#253=SURFACE_STYLE_FILL_AREA(#280);
#254=ORIENTED_EDGE('',*,*,#41,.F.);
#255=ORIENTED_EDGE('',*,*,#54,.T.);
#256=CARTESIAN_POINT('',(-1.51177738379993E-015,-3.02355476759985E-015,24.6891983035841));
#257=DIRECTION('',(-6.12323399573677E-017,-1.22464679914735E-016,1.0));
#258=DIRECTION('',(-1.23259516440783E-032,1.0,1.22464679914735E-016));
#259=SURFACE_STYLE_FILL_AREA(#281);
#260=ORIENTED_EDGE('',*,*,#45,.F.);
#261=CARTESIAN_POINT('',(-1.63490254253036E-015,8.825,26.6999847412109));
#262=DIRECTION('',(-6.12323399573677E-017,-1.22464679914735E-016,1.0));
#263=DIRECTION('',(1.23259516440783E-032,-1.0,-1.22464679914735E-016));
#264=SURFACE_STYLE_FILL_AREA(#282);
#265=ORIENTED_EDGE('',*,*,#49,.F.);
#266=ORIENTED_EDGE('',*,*,#43,.T.);
#267=CARTESIAN_POINT('',(-1.97215226305253E-031,15.9312484741211,1.77635683940025E-015));
#268=DIRECTION('',(6.12323399573677E-017,-1.60619800019875E-016,-1.0));
#269=DIRECTION('',(5.0079734679324E-033,1.0,-1.60619800019875E-016));
#270=SURFACE_STYLE_FILL_AREA(#283);
#271=ORIENTED_EDGE('',*,*,#47,.F.);
#272=ORIENTED_EDGE('',*,*,#49,.T.);
#273=CARTESIAN_POINT('',(1.50019232895551E-016,3.00038465791101E-016,-2.45));
#274=DIRECTION('',(-6.12323399573677E-017,-1.22464679914735E-016,1.0));
#275=DIRECTION('',(-1.23259516440783E-032,1.0,1.22464679914735E-016));
#276=FILL_AREA_STYLE('',(#284));
#277=FILL_AREA_STYLE('',(#285));
#278=FILL_AREA_STYLE('',(#286));
#279=FILL_AREA_STYLE('',(#287));
#280=FILL_AREA_STYLE('',(#288));
#281=FILL_AREA_STYLE('',(#289));
#282=FILL_AREA_STYLE('',(#290));
#283=FILL_AREA_STYLE('',(#291));
#284=FILL_AREA_STYLE_COLOUR('',#292);
#285=FILL_AREA_STYLE_COLOUR('',#293);
#286=FILL_AREA_STYLE_COLOUR('',#294);
#287=FILL_AREA_STYLE_COLOUR('',#295);
#288=FILL_AREA_STYLE_COLOUR('',#296);
#289=FILL_AREA_STYLE_COLOUR('',#297);
#290=FILL_AREA_STYLE_COLOUR('',#298);
#291=FILL_AREA_STYLE_COLOUR('',#299);
#292=COLOUR_RGB('',0.0,1.0,0.0);
#293=COLOUR_RGB('',0.0,1.0,0.0);
#294=COLOUR_RGB('',0.0,1.0,0.0);
#295=COLOUR_RGB('',0.0,1.0,0.0);
#296=COLOUR_RGB('',0.0,1.0,0.0);
#297=COLOUR_RGB('',0.0,1.0,0.0);
#298=COLOUR_RGB('',0.0,1.0,0.0);
#299=COLOUR_RGB('',0.0,1.0,0.0);
ENDSEC;
END-ISO-10303-21;
