ISO-10303-21;
HEADER;
FILE_DESCRIPTION((''),'1');
FILE_NAME('T:/02_3D_Field-HP\X2\FF71FF6FFF8CFF9F5916\X0\2013/02_Step_Field-HP\X2\FF71FF6FFF8CFF9F5916\X0\2013/66_\X2\FF71FF78FF7EFF7BFF98FF70\X0\/MPS13-07075_0708.stp','2017-02-20T05:59:27',(''),(''),'Spatial Interop R21 SP3','Kubotek KeyCreator 2011 V10.0.2 (22737)',' ');
FILE_SCHEMA(('automotive_design'));
ENDSEC;
DATA;
#1=MECHANICAL_DESIGN_GEOMETRIC_PRESENTATION_REPRESENTATION(' ',(#10,#11,#12,#13,#14,#15,#16,#17,#18,#19,#20,#21,#22,#23),#6);
#2=PRODUCT_DEFINITION_CONTEXT('',#24,'design');
#3=APPLICATION_PROTOCOL_DEFINITION('INTERNATIONAL STANDARD','automotive_design',1994,#24);
#4=PRODUCT_CATEGORY_RELATIONSHIP('NONE','NONE',#25,#26);
#5=SHAPE_DEFINITION_REPRESENTATION(#27,#28);
#6= (GEOMETRIC_REPRESENTATION_CONTEXT(3)GLOBAL_UNCERTAINTY_ASSIGNED_CONTEXT((#31))GLOBAL_UNIT_ASSIGNED_CONTEXT((#33,#34,#35))REPRESENTATION_CONTEXT('NONE','WORKSPACE'));
#10=STYLED_ITEM('',(#37,#38),#39);
#11=STYLED_ITEM('',(#40),#41);
#12=STYLED_ITEM('',(#42,#43),#44);
#13=STYLED_ITEM('',(#45),#46);
#14=STYLED_ITEM('',(#47),#48);
#15=STYLED_ITEM('',(#49,#50),#51);
#16=STYLED_ITEM('',(#52,#53),#54);
#17=STYLED_ITEM('',(#55,#56),#57);
#18=STYLED_ITEM('',(#58,#59),#60);
#19=STYLED_ITEM('',(#61),#62);
#20=STYLED_ITEM('',(#63),#64);
#21=STYLED_ITEM('',(#65),#66);
#22=STYLED_ITEM('',(#67,#68),#69);
#23=STYLED_ITEM('',(#70,#71),#72);
#24=APPLICATION_CONTEXT(' ');
#25=PRODUCT_CATEGORY('part','NONE');
#26=PRODUCT_RELATED_PRODUCT_CATEGORY('detail',' ',(#73));
#27=PRODUCT_DEFINITION_SHAPE('NONE','NONE',#74);
#28=ADVANCED_BREP_SHAPE_REPRESENTATION('Unnamed[1]',(#51,#75),#6);
#31=UNCERTAINTY_MEASURE_WITH_UNIT(LENGTH_MEASURE(1.0E-006),#33,'','');
#33= (CONVERSION_BASED_UNIT('MILLIMETRE',#78)LENGTH_UNIT()NAMED_UNIT(#81));
#34= (NAMED_UNIT(#83)PLANE_ANGLE_UNIT()SI_UNIT($,.RADIAN.));
#35= (NAMED_UNIT(#83)SOLID_ANGLE_UNIT()SI_UNIT($,.STERADIAN.));
#37=PRESENTATION_STYLE_ASSIGNMENT((#89));
#38=PRESENTATION_STYLE_ASSIGNMENT((#90));
#39=ADVANCED_FACE('Unnamed[1]',(#91),#92,.T.);
#40=PRESENTATION_STYLE_ASSIGNMENT((#93));
#41=EDGE_CURVE('Unnamed[1]',#94,#94,#95,.T.);
#42=PRESENTATION_STYLE_ASSIGNMENT((#96));
#43=PRESENTATION_STYLE_ASSIGNMENT((#97));
#44=ADVANCED_FACE('Unnamed[1]',(#98,#99),#100,.T.);
#45=PRESENTATION_STYLE_ASSIGNMENT((#101));
#46=EDGE_CURVE('Unnamed[1]',#102,#102,#103,.T.);
#47=PRESENTATION_STYLE_ASSIGNMENT((#104));
#48=EDGE_CURVE('Unnamed[1]',#105,#105,#106,.T.);
#49=PRESENTATION_STYLE_ASSIGNMENT((#107));
#50=PRESENTATION_STYLE_ASSIGNMENT((#108));
#51=MANIFOLD_SOLID_BREP('Unnamed[1]',#109);
#52=PRESENTATION_STYLE_ASSIGNMENT((#110));
#53=PRESENTATION_STYLE_ASSIGNMENT((#111));
#54=ADVANCED_FACE('Unnamed[1]',(#112,#113),#114,.T.);
#55=PRESENTATION_STYLE_ASSIGNMENT((#115));
#56=PRESENTATION_STYLE_ASSIGNMENT((#116));
#57=ADVANCED_FACE('Unnamed[1]',(#117,#118),#119,.T.);
#58=PRESENTATION_STYLE_ASSIGNMENT((#120));
#59=PRESENTATION_STYLE_ASSIGNMENT((#121));
#60=ADVANCED_FACE('Unnamed[1]',(#122,#123),#124,.T.);
#61=PRESENTATION_STYLE_ASSIGNMENT((#125));
#62=EDGE_CURVE('Unnamed[1]',#126,#126,#127,.T.);
#63=PRESENTATION_STYLE_ASSIGNMENT((#128));
#64=EDGE_CURVE('Unnamed[1]',#129,#129,#130,.T.);
#65=PRESENTATION_STYLE_ASSIGNMENT((#131));
#66=EDGE_CURVE('Unnamed[1]',#132,#132,#133,.T.);
#67=PRESENTATION_STYLE_ASSIGNMENT((#134));
#68=PRESENTATION_STYLE_ASSIGNMENT((#135));
#69=ADVANCED_FACE('Unnamed[1]',(#136),#137,.T.);
#70=PRESENTATION_STYLE_ASSIGNMENT((#138));
#71=PRESENTATION_STYLE_ASSIGNMENT((#139));
#72=ADVANCED_FACE('Unnamed[1]',(#140,#141),#142,.T.);
#73=PRODUCT('Unnamed[1]','Unnamed[1]','PART-Unnamed[1]-DESC',(#143));
#74=PRODUCT_DEFINITION('NONE','NONE',#144,#2);
#75=AXIS2_PLACEMENT_3D('',#145,#146,#147);
#78=LENGTH_MEASURE_WITH_UNIT(LENGTH_MEASURE(1.0),#148);
#81=DIMENSIONAL_EXPONENTS(1.0,0.0,0.0,0.0,0.0,0.0,0.0);
#83=DIMENSIONAL_EXPONENTS(0.0,0.0,0.0,0.0,0.0,0.0,0.0);
#89=SURFACE_STYLE_USAGE(.BOTH.,#149);
#90=CURVE_STYLE('',#150,POSITIVE_LENGTH_MEASURE(1000.0),#151);
#91=FACE_OUTER_BOUND('',#152,.T.);
#92=PLANE('',#153);
#93=CURVE_STYLE('',#154,POSITIVE_LENGTH_MEASURE(1000.0),#155);
#94=VERTEX_POINT('',#156);
#95=CIRCLE('',#157,8.1136639038002);
#96=SURFACE_STYLE_USAGE(.BOTH.,#158);
#97=CURVE_STYLE('',#159,POSITIVE_LENGTH_MEASURE(1000.0),#160);
#98=FACE_BOUND('',#161,.T.);
#99=FACE_OUTER_BOUND('',#162,.T.);
#100=PLANE('',#163);
#101=CURVE_STYLE('',#164,POSITIVE_LENGTH_MEASURE(1000.0),#165);
#102=VERTEX_POINT('',#166);
#103=CIRCLE('',#167,17.65);
#104=CURVE_STYLE('',#168,POSITIVE_LENGTH_MEASURE(1000.0),#169);
#105=VERTEX_POINT('',#170);
#106=CIRCLE('',#171,17.5);
#107=SURFACE_STYLE_USAGE(.BOTH.,#172);
#108=CURVE_STYLE('',#173,POSITIVE_LENGTH_MEASURE(1000.0),#174);
#109=CLOSED_SHELL('',(#39,#72,#54,#57,#44,#60,#69));
#110=SURFACE_STYLE_USAGE(.BOTH.,#175);
#111=CURVE_STYLE('',#176,POSITIVE_LENGTH_MEASURE(1000.0),#177);
#112=FACE_BOUND('',#178,.T.);
#113=FACE_BOUND('',#179,.T.);
#114=CONICAL_SURFACE('',#180,17.575,0.785398163397448);
#115=SURFACE_STYLE_USAGE(.BOTH.,#181);
#116=CURVE_STYLE('',#182,POSITIVE_LENGTH_MEASURE(1000.0),#183);
#117=FACE_BOUND('',#184,.T.);
#118=FACE_BOUND('',#185,.T.);
#119=CYLINDRICAL_SURFACE('',#186,17.5);
#120=SURFACE_STYLE_USAGE(.BOTH.,#187);
#121=CURVE_STYLE('',#188,POSITIVE_LENGTH_MEASURE(1000.0),#189);
#122=FACE_BOUND('',#190,.T.);
#123=FACE_BOUND('',#191,.T.);
#124=CONICAL_SURFACE('',#192,11.2380804260212,0.936226445053488);
#125=CURVE_STYLE('',#193,POSITIVE_LENGTH_MEASURE(1000.0),#194);
#126=VERTEX_POINT('',#195);
#127=CIRCLE('',#196,17.65);
#128=CURVE_STYLE('',#197,POSITIVE_LENGTH_MEASURE(1000.0),#198);
#129=VERTEX_POINT('',#199);
#130=CIRCLE('',#200,14.3624969482422);
#131=CURVE_STYLE('',#201,POSITIVE_LENGTH_MEASURE(1000.0),#202);
#132=VERTEX_POINT('',#203);
#133=CIRCLE('',#204,17.5);
#134=SURFACE_STYLE_USAGE(.BOTH.,#205);
#135=CURVE_STYLE('',#206,POSITIVE_LENGTH_MEASURE(1000.0),#207);
#136=FACE_OUTER_BOUND('',#208,.T.);
#137=PLANE('',#209);
#138=SURFACE_STYLE_USAGE(.BOTH.,#210);
#139=CURVE_STYLE('',#211,POSITIVE_LENGTH_MEASURE(1000.0),#212);
#140=FACE_BOUND('',#213,.T.);
#141=FACE_BOUND('',#214,.T.);
#142=CYLINDRICAL_SURFACE('',#215,17.65);
#143=PRODUCT_CONTEXT('',#24,'mechanical');
#144=PRODUCT_DEFINITION_FORMATION_WITH_SPECIFIED_SOURCE(' ','NONE',#73,.NOT_KNOWN.);
#145=CARTESIAN_POINT('',(0.0,0.0,0.0));
#146=DIRECTION('',(0.0,0.0,1.0));
#147=DIRECTION('',(1.0,0.0,0.0));
#148= (NAMED_UNIT(#81)LENGTH_UNIT()SI_UNIT(.MILLI.,.METRE.));
#149=SURFACE_SIDE_STYLE('',(#217));
#150=DRAUGHTING_PRE_DEFINED_CURVE_FONT('continuous');
#151=COLOUR_RGB('',0.0,1.0,0.0);
#152=EDGE_LOOP('',(#218));
#153=AXIS2_PLACEMENT_3D('',#219,#220,#221);
#154=DRAUGHTING_PRE_DEFINED_CURVE_FONT('continuous');
#155=COLOUR_RGB('',0.0,1.0,0.0);
#156=CARTESIAN_POINT('',(2.81668763803891E-016,8.1136639038002,-4.59999999999999));
#157=AXIS2_PLACEMENT_3D('',#222,#223,#224);
#158=SURFACE_SIDE_STYLE('',(#225));
#159=DRAUGHTING_PRE_DEFINED_CURVE_FONT('continuous');
#160=COLOUR_RGB('',0.0,1.0,0.0);
#161=EDGE_LOOP('',(#226));
#162=EDGE_LOOP('',(#227));
#163=AXIS2_PLACEMENT_3D('',#228,#229,#230);
#164=DRAUGHTING_PRE_DEFINED_CURVE_FONT('continuous');
#165=COLOUR_RGB('',0.0,1.0,0.0);
#166=CARTESIAN_POINT('',(-1.51636980929673E-015,17.65,24.7641983035841));
#167=AXIS2_PLACEMENT_3D('',#231,#232,#233);
#168=DRAUGHTING_PRE_DEFINED_CURVE_FONT('continuous');
#169=COLOUR_RGB('',0.0,1.0,0.0);
#170=CARTESIAN_POINT('',(-1.50718495830312E-015,17.5,24.6141983035841));
#171=AXIS2_PLACEMENT_3D('',#234,#235,#236);
#172=SURFACE_SIDE_STYLE('',(#237));
#173=DRAUGHTING_PRE_DEFINED_CURVE_FONT('continuous');
#174=COLOUR_RGB('',0.0,1.0,0.0);
#175=SURFACE_SIDE_STYLE('',(#238));
#176=DRAUGHTING_PRE_DEFINED_CURVE_FONT('continuous');
#177=COLOUR_RGB('',0.0,1.0,0.0);
#178=EDGE_LOOP('',(#239));
#179=EDGE_LOOP('',(#240));
#180=AXIS2_PLACEMENT_3D('',#241,#242,#243);
#181=SURFACE_SIDE_STYLE('',(#244));
#182=DRAUGHTING_PRE_DEFINED_CURVE_FONT('continuous');
#183=COLOUR_RGB('',0.0,1.0,0.0);
#184=EDGE_LOOP('',(#245));
#185=EDGE_LOOP('',(#246));
#186=AXIS2_PLACEMENT_3D('',#247,#248,#249);
#187=SURFACE_SIDE_STYLE('',(#250));
#188=DRAUGHTING_PRE_DEFINED_CURVE_FONT('continuous');
#189=COLOUR_RGB('',0.0,1.0,0.0);
#190=EDGE_LOOP('',(#251));
#191=EDGE_LOOP('',(#252));
#192=AXIS2_PLACEMENT_3D('',#253,#254,#255);
#193=DRAUGHTING_PRE_DEFINED_CURVE_FONT('continuous');
#194=COLOUR_RGB('',0.0,1.0,0.0);
#195=CARTESIAN_POINT('',(-1.63490254253036E-015,17.65,26.6999847412109));
#196=AXIS2_PLACEMENT_3D('',#256,#257,#258);
#197=DRAUGHTING_PRE_DEFINED_CURVE_FONT('continuous');
#198=COLOUR_RGB('',0.0,1.0,0.0);
#199=CARTESIAN_POINT('',(-9.86076131526265E-032,14.3624969482422,8.88178419700125E-016));
#200=AXIS2_PLACEMENT_3D('',#259,#260,#261);
#201=DRAUGHTING_PRE_DEFINED_CURVE_FONT('continuous');
#202=COLOUR_RGB('',0.0,1.0,0.0);
#203=CARTESIAN_POINT('',(-1.97215226305253E-031,17.5,1.77635683940025E-015));
#204=AXIS2_PLACEMENT_3D('',#262,#263,#264);
#205=SURFACE_SIDE_STYLE('',(#265));
#206=DRAUGHTING_PRE_DEFINED_CURVE_FONT('continuous');
#207=COLOUR_RGB('',0.0,1.0,0.0);
#208=EDGE_LOOP('',(#266));
#209=AXIS2_PLACEMENT_3D('',#267,#268,#269);
#210=SURFACE_SIDE_STYLE('',(#270));
#211=DRAUGHTING_PRE_DEFINED_CURVE_FONT('continuous');
#212=COLOUR_RGB('',0.0,1.0,0.0);
#213=EDGE_LOOP('',(#271));
#214=EDGE_LOOP('',(#272));
#215=AXIS2_PLACEMENT_3D('',#273,#274,#275);
#217=SURFACE_STYLE_FILL_AREA(#276);
#218=ORIENTED_EDGE('',*,*,#62,.F.);
#219=CARTESIAN_POINT('',(-1.63490254253036E-015,8.825,26.6999847412109));
#220=DIRECTION('',(-6.12323399573677E-017,-1.22464679914735E-016,1.0));
#221=DIRECTION('',(1.23259516440783E-032,-1.0,-1.22464679914735E-016));
#222=CARTESIAN_POINT('',(2.81668763803891E-016,5.63337527607782E-016,-4.59999999999999));
#223=DIRECTION('',(6.12323399573677E-017,1.22464679914735E-016,-1.0));
#224=DIRECTION('',(-1.23259516440783E-032,1.0,1.22464679914735E-016));
#225=SURFACE_STYLE_FILL_AREA(#277);
#226=ORIENTED_EDGE('',*,*,#64,.F.);
#227=ORIENTED_EDGE('',*,*,#66,.T.);
#228=CARTESIAN_POINT('',(-1.97215226305253E-031,15.9312484741211,1.77635683940025E-015));
#229=DIRECTION('',(6.12323399573677E-017,4.05549159849346E-016,-1.0));
#230=DIRECTION('',(-2.9659876756089E-032,1.0,4.05549159849346E-016));
#231=CARTESIAN_POINT('',(-1.51636980929673E-015,-3.03273961859346E-015,24.7641983035841));
#232=DIRECTION('',(6.12323399573677E-017,1.22464679914735E-016,-1.0));
#233=DIRECTION('',(-1.23259516440783E-032,1.0,1.22464679914735E-016));
#234=CARTESIAN_POINT('',(-1.50718495830312E-015,-3.01436991660625E-015,24.6141983035841));
#235=DIRECTION('',(6.12323399573677E-017,1.22464679914735E-016,-1.0));
#236=DIRECTION('',(-1.23259516440783E-032,1.0,1.22464679914735E-016));
#237=SURFACE_STYLE_FILL_AREA(#278);
#238=SURFACE_STYLE_FILL_AREA(#279);
#239=ORIENTED_EDGE('',*,*,#48,.F.);
#240=ORIENTED_EDGE('',*,*,#46,.T.);
#241=CARTESIAN_POINT('',(-1.51177738379993E-015,-3.02355476759985E-015,24.6891983035841));
#242=DIRECTION('',(-6.12323399573677E-017,-1.22464679914735E-016,1.0));
#243=DIRECTION('',(-1.23259516440783E-032,1.0,1.22464679914735E-016));
#244=SURFACE_STYLE_FILL_AREA(#280);
#245=ORIENTED_EDGE('',*,*,#66,.F.);
#246=ORIENTED_EDGE('',*,*,#48,.T.);
#247=CARTESIAN_POINT('',(-7.53592479151562E-016,-1.50718495830312E-015,12.307099151792));
#248=DIRECTION('',(6.12323399573677E-017,1.22464679914735E-016,-1.0));
#249=DIRECTION('',(-1.23259516440783E-032,1.0,1.22464679914735E-016));
#250=SURFACE_STYLE_FILL_AREA(#281);
#251=ORIENTED_EDGE('',*,*,#41,.F.);
#252=ORIENTED_EDGE('',*,*,#64,.T.);
#253=CARTESIAN_POINT('',(1.40834381901946E-016,2.81668763803891E-016,-2.3));
#254=DIRECTION('',(-6.12323399573677E-017,-1.22464679914735E-016,1.0));
#255=DIRECTION('',(-1.23259516440783E-032,1.0,1.22464679914735E-016));
#256=CARTESIAN_POINT('',(-1.63490254253036E-015,-3.26980508506071E-015,26.6999847412109));
#257=DIRECTION('',(6.12323399573677E-017,1.22464679914735E-016,-1.0));
#258=DIRECTION('',(-1.23259516440783E-032,1.0,1.22464679914735E-016));
#259=CARTESIAN_POINT('',(9.86076131526265E-032,9.86076131526265E-032,-8.88178419700125E-016));
#260=DIRECTION('',(6.12323399573677E-017,1.22464679914735E-016,-1.0));
#261=DIRECTION('',(-1.23259516440783E-032,1.0,1.22464679914735E-016));
#262=CARTESIAN_POINT('',(0.0,0.0,0.0));
#263=DIRECTION('',(6.12323399573677E-017,1.22464679914735E-016,-1.0));
#264=DIRECTION('',(-1.23259516440783E-032,1.0,1.22464679914735E-016));
#265=SURFACE_STYLE_FILL_AREA(#282);
#266=ORIENTED_EDGE('',*,*,#41,.T.);
#267=CARTESIAN_POINT('',(2.81668763803891E-016,4.0568319519001,-4.59999999999999));
#268=DIRECTION('',(6.12323399573677E-017,1.22464679914735E-016,-1.0));
#269=DIRECTION('',(-1.23259516440783E-032,1.0,1.22464679914735E-016));
#270=SURFACE_STYLE_FILL_AREA(#283);
#271=ORIENTED_EDGE('',*,*,#46,.F.);
#272=ORIENTED_EDGE('',*,*,#62,.T.);
#273=CARTESIAN_POINT('',(-1.57563617591354E-015,-3.15127235182708E-015,25.7320915223975));
#274=DIRECTION('',(6.12323399573677E-017,1.22464679914735E-016,-1.0));
#275=DIRECTION('',(-1.23259516440783E-032,1.0,1.22464679914735E-016));
#276=FILL_AREA_STYLE('',(#284));
#277=FILL_AREA_STYLE('',(#285));
#278=FILL_AREA_STYLE('',(#286));
#279=FILL_AREA_STYLE('',(#287));
#280=FILL_AREA_STYLE('',(#288));
#281=FILL_AREA_STYLE('',(#289));
#282=FILL_AREA_STYLE('',(#290));
#283=FILL_AREA_STYLE('',(#291));
#284=FILL_AREA_STYLE_COLOUR('',#292);
#285=FILL_AREA_STYLE_COLOUR('',#293);
#286=FILL_AREA_STYLE_COLOUR('',#294);
#287=FILL_AREA_STYLE_COLOUR('',#295);
#288=FILL_AREA_STYLE_COLOUR('',#296);
#289=FILL_AREA_STYLE_COLOUR('',#297);
#290=FILL_AREA_STYLE_COLOUR('',#298);
#291=FILL_AREA_STYLE_COLOUR('',#299);
#292=COLOUR_RGB('',0.0,1.0,0.0);
#293=COLOUR_RGB('',0.0,1.0,0.0);
#294=COLOUR_RGB('',0.0,1.0,0.0);
#295=COLOUR_RGB('',0.0,1.0,0.0);
#296=COLOUR_RGB('',0.0,1.0,0.0);
#297=COLOUR_RGB('',0.0,1.0,0.0);
#298=COLOUR_RGB('',0.0,1.0,0.0);
#299=COLOUR_RGB('',0.0,1.0,0.0);
ENDSEC;
END-ISO-10303-21;
