ISO-10303-21;
HEADER;
FILE_DESCRIPTION((''),'1');
FILE_NAME('T:/02_3D_Field-HP\X2\FF71FF6FFF8CFF9F5916\X0\2013/02_Step_Field-HP\X2\FF71FF6FFF8CFF9F5916\X0\2013/66_\X2\FF71FF78FF7EFF7BFF98FF70\X0\/MPS13-05055_0506.stp','2017-02-20T05:54:35',(''),(''),'Spatial Interop R21 SP3','Kubotek KeyCreator 2011 V10.0.2 (22737)',' ');
FILE_SCHEMA(('automotive_design'));
ENDSEC;
DATA;
#1=MECHANICAL_DESIGN_GEOMETRIC_PRESENTATION_REPRESENTATION(' ',(#10,#11,#12,#13,#14,#15,#16,#17,#18,#19,#20,#21,#22,#23),#6);
#2=PRODUCT_DEFINITION_CONTEXT('',#24,'design');
#3=APPLICATION_PROTOCOL_DEFINITION('INTERNATIONAL STANDARD','automotive_design',1994,#24);
#4=PRODUCT_CATEGORY_RELATIONSHIP('NONE','NONE',#25,#26);
#5=SHAPE_DEFINITION_REPRESENTATION(#27,#28);
#6= (GEOMETRIC_REPRESENTATION_CONTEXT(3)GLOBAL_UNCERTAINTY_ASSIGNED_CONTEXT((#31))GLOBAL_UNIT_ASSIGNED_CONTEXT((#33,#34,#35))REPRESENTATION_CONTEXT('NONE','WORKSPACE'));
#10=STYLED_ITEM('',(#37),#38);
#11=STYLED_ITEM('',(#39,#40),#41);
#12=STYLED_ITEM('',(#42,#43),#44);
#13=STYLED_ITEM('',(#45,#46),#47);
#14=STYLED_ITEM('',(#48,#49),#50);
#15=STYLED_ITEM('',(#51),#52);
#16=STYLED_ITEM('',(#53),#54);
#17=STYLED_ITEM('',(#55,#56),#57);
#18=STYLED_ITEM('',(#58),#59);
#19=STYLED_ITEM('',(#60,#61),#62);
#20=STYLED_ITEM('',(#63,#64),#65);
#21=STYLED_ITEM('',(#66),#67);
#22=STYLED_ITEM('',(#68,#69),#70);
#23=STYLED_ITEM('',(#71),#72);
#24=APPLICATION_CONTEXT(' ');
#25=PRODUCT_CATEGORY('part','NONE');
#26=PRODUCT_RELATED_PRODUCT_CATEGORY('detail',' ',(#73));
#27=PRODUCT_DEFINITION_SHAPE('NONE','NONE',#74);
#28=ADVANCED_BREP_SHAPE_REPRESENTATION('Unnamed[1]',(#57,#75),#6);
#31=UNCERTAINTY_MEASURE_WITH_UNIT(LENGTH_MEASURE(1.0E-006),#33,'','');
#33= (CONVERSION_BASED_UNIT('MILLIMETRE',#78)LENGTH_UNIT()NAMED_UNIT(#81));
#34= (NAMED_UNIT(#83)PLANE_ANGLE_UNIT()SI_UNIT($,.RADIAN.));
#35= (NAMED_UNIT(#83)SOLID_ANGLE_UNIT()SI_UNIT($,.STERADIAN.));
#37=PRESENTATION_STYLE_ASSIGNMENT((#89));
#38=EDGE_CURVE('Unnamed[1]',#90,#90,#91,.T.);
#39=PRESENTATION_STYLE_ASSIGNMENT((#92));
#40=PRESENTATION_STYLE_ASSIGNMENT((#93));
#41=ADVANCED_FACE('Unnamed[1]',(#94,#95),#96,.T.);
#42=PRESENTATION_STYLE_ASSIGNMENT((#97));
#43=PRESENTATION_STYLE_ASSIGNMENT((#98));
#44=ADVANCED_FACE('Unnamed[1]',(#99),#100,.T.);
#45=PRESENTATION_STYLE_ASSIGNMENT((#101));
#46=PRESENTATION_STYLE_ASSIGNMENT((#102));
#47=ADVANCED_FACE('Unnamed[1]',(#103,#104),#105,.T.);
#48=PRESENTATION_STYLE_ASSIGNMENT((#106));
#49=PRESENTATION_STYLE_ASSIGNMENT((#107));
#50=ADVANCED_FACE('Unnamed[1]',(#108,#109),#110,.T.);
#51=PRESENTATION_STYLE_ASSIGNMENT((#111));
#52=EDGE_CURVE('Unnamed[1]',#112,#112,#113,.T.);
#53=PRESENTATION_STYLE_ASSIGNMENT((#114));
#54=EDGE_CURVE('Unnamed[1]',#115,#115,#116,.T.);
#55=PRESENTATION_STYLE_ASSIGNMENT((#117));
#56=PRESENTATION_STYLE_ASSIGNMENT((#118));
#57=MANIFOLD_SOLID_BREP('Unnamed[1]',#119);
#58=PRESENTATION_STYLE_ASSIGNMENT((#120));
#59=EDGE_CURVE('Unnamed[1]',#121,#121,#122,.T.);
#60=PRESENTATION_STYLE_ASSIGNMENT((#123));
#61=PRESENTATION_STYLE_ASSIGNMENT((#124));
#62=ADVANCED_FACE('Unnamed[1]',(#125,#126),#127,.T.);
#63=PRESENTATION_STYLE_ASSIGNMENT((#128));
#64=PRESENTATION_STYLE_ASSIGNMENT((#129));
#65=ADVANCED_FACE('Unnamed[1]',(#130),#131,.T.);
#66=PRESENTATION_STYLE_ASSIGNMENT((#132));
#67=EDGE_CURVE('Unnamed[1]',#133,#133,#134,.T.);
#68=PRESENTATION_STYLE_ASSIGNMENT((#135));
#69=PRESENTATION_STYLE_ASSIGNMENT((#136));
#70=ADVANCED_FACE('Unnamed[1]',(#137,#138),#139,.T.);
#71=PRESENTATION_STYLE_ASSIGNMENT((#140));
#72=EDGE_CURVE('Unnamed[1]',#141,#141,#142,.T.);
#73=PRODUCT('Unnamed[1]','Unnamed[1]','PART-Unnamed[1]-DESC',(#143));
#74=PRODUCT_DEFINITION('NONE','NONE',#144,#2);
#75=AXIS2_PLACEMENT_3D('',#145,#146,#147);
#78=LENGTH_MEASURE_WITH_UNIT(LENGTH_MEASURE(1.0),#148);
#81=DIMENSIONAL_EXPONENTS(1.0,0.0,0.0,0.0,0.0,0.0,0.0);
#83=DIMENSIONAL_EXPONENTS(0.0,0.0,0.0,0.0,0.0,0.0,0.0);
#89=CURVE_STYLE('',#149,POSITIVE_LENGTH_MEASURE(1000.0),#150);
#90=VERTEX_POINT('',#151);
#91=CIRCLE('',#152,17.5);
#92=SURFACE_STYLE_USAGE(.BOTH.,#153);
#93=CURVE_STYLE('',#154,POSITIVE_LENGTH_MEASURE(1000.0),#155);
#94=FACE_BOUND('',#156,.T.);
#95=FACE_BOUND('',#157,.T.);
#96=CYLINDRICAL_SURFACE('',#158,17.5);
#97=SURFACE_STYLE_USAGE(.BOTH.,#159);
#98=CURVE_STYLE('',#160,POSITIVE_LENGTH_MEASURE(1000.0),#161);
#99=FACE_OUTER_BOUND('',#162,.T.);
#100=PLANE('',#163);
#101=SURFACE_STYLE_USAGE(.BOTH.,#164);
#102=CURVE_STYLE('',#165,POSITIVE_LENGTH_MEASURE(1000.0),#166);
#103=FACE_BOUND('',#167,.T.);
#104=FACE_BOUND('',#168,.T.);
#105=CYLINDRICAL_SURFACE('',#169,17.65);
#106=SURFACE_STYLE_USAGE(.BOTH.,#170);
#107=CURVE_STYLE('',#171,POSITIVE_LENGTH_MEASURE(1000.0),#172);
#108=FACE_BOUND('',#173,.T.);
#109=FACE_BOUND('',#174,.T.);
#110=CONICAL_SURFACE('',#175,17.575,0.785398163397448);
#111=CURVE_STYLE('',#176,POSITIVE_LENGTH_MEASURE(1000.0),#177);
#112=VERTEX_POINT('',#178);
#113=CIRCLE('',#179,17.5);
#114=CURVE_STYLE('',#180,POSITIVE_LENGTH_MEASURE(1000.0),#181);
#115=VERTEX_POINT('',#182);
#116=CIRCLE('',#183,17.65);
#117=SURFACE_STYLE_USAGE(.BOTH.,#184);
#118=CURVE_STYLE('',#185,POSITIVE_LENGTH_MEASURE(1000.0),#186);
#119=CLOSED_SHELL('',(#65,#47,#50,#41,#62,#70,#44));
#120=CURVE_STYLE('',#187,POSITIVE_LENGTH_MEASURE(1000.0),#188);
#121=VERTEX_POINT('',#189);
#122=CIRCLE('',#190,7.01879814456781);
#123=SURFACE_STYLE_USAGE(.BOTH.,#191);
#124=CURVE_STYLE('',#192,POSITIVE_LENGTH_MEASURE(1000.0),#193);
#125=FACE_BOUND('',#194,.T.);
#126=FACE_OUTER_BOUND('',#195,.T.);
#127=PLANE('',#196);
#128=SURFACE_STYLE_USAGE(.BOTH.,#197);
#129=CURVE_STYLE('',#198,POSITIVE_LENGTH_MEASURE(1000.0),#199);
#130=FACE_OUTER_BOUND('',#200,.T.);
#131=PLANE('',#201);
#132=CURVE_STYLE('',#202,POSITIVE_LENGTH_MEASURE(1000.0),#203);
#133=VERTEX_POINT('',#204);
#134=CIRCLE('',#205,14.3624969482422);
#135=SURFACE_STYLE_USAGE(.BOTH.,#206);
#136=CURVE_STYLE('',#207,POSITIVE_LENGTH_MEASURE(1000.0),#208);
#137=FACE_BOUND('',#209,.T.);
#138=FACE_BOUND('',#210,.T.);
#139=CONICAL_SURFACE('',#211,10.690647546405,1.04108001574602);
#140=CURVE_STYLE('',#212,POSITIVE_LENGTH_MEASURE(1000.0),#213);
#141=VERTEX_POINT('',#214);
#142=CIRCLE('',#215,17.65);
#143=PRODUCT_CONTEXT('',#24,'mechanical');
#144=PRODUCT_DEFINITION_FORMATION_WITH_SPECIFIED_SOURCE(' ','NONE',#73,.NOT_KNOWN.);
#145=CARTESIAN_POINT('',(0.0,0.0,0.0));
#146=DIRECTION('',(0.0,0.0,1.0));
#147=DIRECTION('',(1.0,0.0,0.0));
#148= (NAMED_UNIT(#81)LENGTH_UNIT()SI_UNIT(.MILLI.,.METRE.));
#149=DRAUGHTING_PRE_DEFINED_CURVE_FONT('continuous');
#150=COLOUR_RGB('',0.0,1.0,0.0);
#151=CARTESIAN_POINT('',(-1.97215226305253E-031,17.5,1.77635683940025E-015));
#152=AXIS2_PLACEMENT_3D('',#217,#218,#219);
#153=SURFACE_SIDE_STYLE('',(#220));
#154=DRAUGHTING_PRE_DEFINED_CURVE_FONT('continuous');
#155=COLOUR_RGB('',0.0,1.0,0.0);
#156=EDGE_LOOP('',(#221));
#157=EDGE_LOOP('',(#222));
#158=AXIS2_PLACEMENT_3D('',#223,#224,#225);
#159=SURFACE_SIDE_STYLE('',(#226));
#160=DRAUGHTING_PRE_DEFINED_CURVE_FONT('continuous');
#161=COLOUR_RGB('',0.0,1.0,0.0);
#162=EDGE_LOOP('',(#227));
#163=AXIS2_PLACEMENT_3D('',#228,#229,#230);
#164=SURFACE_SIDE_STYLE('',(#231));
#165=DRAUGHTING_PRE_DEFINED_CURVE_FONT('continuous');
#166=COLOUR_RGB('',0.0,1.0,0.0);
#167=EDGE_LOOP('',(#232));
#168=EDGE_LOOP('',(#233));
#169=AXIS2_PLACEMENT_3D('',#234,#235,#236);
#170=SURFACE_SIDE_STYLE('',(#237));
#171=DRAUGHTING_PRE_DEFINED_CURVE_FONT('continuous');
#172=COLOUR_RGB('',0.0,1.0,0.0);
#173=EDGE_LOOP('',(#238));
#174=EDGE_LOOP('',(#239));
#175=AXIS2_PLACEMENT_3D('',#240,#241,#242);
#176=DRAUGHTING_PRE_DEFINED_CURVE_FONT('continuous');
#177=COLOUR_RGB('',0.0,1.0,0.0);
#178=CARTESIAN_POINT('',(-1.50718495830312E-015,17.5,24.6141983035841));
#179=AXIS2_PLACEMENT_3D('',#243,#244,#245);
#180=DRAUGHTING_PRE_DEFINED_CURVE_FONT('continuous');
#181=COLOUR_RGB('',0.0,1.0,0.0);
#182=CARTESIAN_POINT('',(-1.51636980929673E-015,17.65,24.7641983035841));
#183=AXIS2_PLACEMENT_3D('',#246,#247,#248);
#184=SURFACE_SIDE_STYLE('',(#249));
#185=DRAUGHTING_PRE_DEFINED_CURVE_FONT('continuous');
#186=COLOUR_RGB('',0.0,1.0,0.0);
#187=DRAUGHTING_PRE_DEFINED_CURVE_FONT('continuous');
#188=COLOUR_RGB('',0.0,1.0,0.0);
#189=CARTESIAN_POINT('',(2.63299061816682E-016,7.01879814456781,-4.30000000000001));
#190=AXIS2_PLACEMENT_3D('',#250,#251,#252);
#191=SURFACE_SIDE_STYLE('',(#253));
#192=DRAUGHTING_PRE_DEFINED_CURVE_FONT('continuous');
#193=COLOUR_RGB('',0.0,1.0,0.0);
#194=EDGE_LOOP('',(#254));
#195=EDGE_LOOP('',(#255));
#196=AXIS2_PLACEMENT_3D('',#256,#257,#258);
#197=SURFACE_SIDE_STYLE('',(#259));
#198=DRAUGHTING_PRE_DEFINED_CURVE_FONT('continuous');
#199=COLOUR_RGB('',0.0,1.0,0.0);
#200=EDGE_LOOP('',(#260));
#201=AXIS2_PLACEMENT_3D('',#261,#262,#263);
#202=DRAUGHTING_PRE_DEFINED_CURVE_FONT('continuous');
#203=COLOUR_RGB('',0.0,1.0,0.0);
#204=CARTESIAN_POINT('',(-1.97215226305253E-031,14.3624969482422,1.77635683940025E-015));
#205=AXIS2_PLACEMENT_3D('',#264,#265,#266);
#206=SURFACE_SIDE_STYLE('',(#267));
#207=DRAUGHTING_PRE_DEFINED_CURVE_FONT('continuous');
#208=COLOUR_RGB('',0.0,1.0,0.0);
#209=EDGE_LOOP('',(#268));
#210=EDGE_LOOP('',(#269));
#211=AXIS2_PLACEMENT_3D('',#270,#271,#272);
#212=DRAUGHTING_PRE_DEFINED_CURVE_FONT('continuous');
#213=COLOUR_RGB('',0.0,1.0,0.0);
#214=CARTESIAN_POINT('',(-1.63490254253036E-015,17.65,26.6999847412109));
#215=AXIS2_PLACEMENT_3D('',#273,#274,#275);
#217=CARTESIAN_POINT('',(0.0,0.0,0.0));
#218=DIRECTION('',(6.12323399573677E-017,1.22464679914735E-016,-1.0));
#219=DIRECTION('',(-1.23259516440783E-032,1.0,1.22464679914735E-016));
#220=SURFACE_STYLE_FILL_AREA(#276);
#221=ORIENTED_EDGE('',*,*,#38,.F.);
#222=ORIENTED_EDGE('',*,*,#52,.T.);
#223=CARTESIAN_POINT('',(-7.53592479151561E-016,-1.50718495830312E-015,12.307099151792));
#224=DIRECTION('',(6.12323399573677E-017,1.22464679914735E-016,-1.0));
#225=DIRECTION('',(-1.23259516440783E-032,1.0,1.22464679914735E-016));
#226=SURFACE_STYLE_FILL_AREA(#277);
#227=ORIENTED_EDGE('',*,*,#59,.T.);
#228=CARTESIAN_POINT('',(2.63299061816682E-016,3.5093990722839,-4.30000000000001));
#229=DIRECTION('',(6.12323399573677E-017,1.22464679914735E-016,-1.0));
#230=DIRECTION('',(-1.23259516440783E-032,1.0,1.22464679914735E-016));
#231=SURFACE_STYLE_FILL_AREA(#278);
#232=ORIENTED_EDGE('',*,*,#54,.F.);
#233=ORIENTED_EDGE('',*,*,#72,.T.);
#234=CARTESIAN_POINT('',(-1.57563617591354E-015,-3.15127235182708E-015,25.7320915223975));
#235=DIRECTION('',(6.12323399573677E-017,1.22464679914735E-016,-1.0));
#236=DIRECTION('',(-1.23259516440783E-032,1.0,1.22464679914735E-016));
#237=SURFACE_STYLE_FILL_AREA(#279);
#238=ORIENTED_EDGE('',*,*,#52,.F.);
#239=ORIENTED_EDGE('',*,*,#54,.T.);
#240=CARTESIAN_POINT('',(-1.51177738379993E-015,-3.02355476759985E-015,24.6891983035841));
#241=DIRECTION('',(-6.12323399573677E-017,-1.22464679914735E-016,1.0));
#242=DIRECTION('',(-1.23259516440783E-032,1.0,1.22464679914735E-016));
#243=CARTESIAN_POINT('',(-1.50718495830312E-015,-3.01436991660624E-015,24.6141983035841));
#244=DIRECTION('',(6.12323399573677E-017,1.22464679914735E-016,-1.0));
#245=DIRECTION('',(-1.23259516440783E-032,1.0,1.22464679914735E-016));
#246=CARTESIAN_POINT('',(-1.51636980929673E-015,-3.03273961859346E-015,24.7641983035841));
#247=DIRECTION('',(6.12323399573677E-017,1.22464679914735E-016,-1.0));
#248=DIRECTION('',(-1.23259516440783E-032,1.0,1.22464679914735E-016));
#249=SURFACE_STYLE_FILL_AREA(#280);
#250=CARTESIAN_POINT('',(2.63299061816682E-016,5.26598123633363E-016,-4.30000000000001));
#251=DIRECTION('',(6.12323399573677E-017,1.22464679914735E-016,-1.0));
#252=DIRECTION('',(-1.23259516440783E-032,1.0,1.22464679914735E-016));
#253=SURFACE_STYLE_FILL_AREA(#281);
#254=ORIENTED_EDGE('',*,*,#67,.F.);
#255=ORIENTED_EDGE('',*,*,#38,.T.);
#256=CARTESIAN_POINT('',(-1.97215226305253E-031,15.9312484741211,1.77635683940025E-015));
#257=DIRECTION('',(6.12323399573677E-017,1.22464679914735E-016,-1.0));
#258=DIRECTION('',(-1.23259516440783E-032,1.0,1.22464679914735E-016));
#259=SURFACE_STYLE_FILL_AREA(#282);
#260=ORIENTED_EDGE('',*,*,#72,.F.);
#261=CARTESIAN_POINT('',(-1.63490254253036E-015,8.825,26.6999847412109));
#262=DIRECTION('',(-6.12323399573677E-017,-1.22464679914735E-016,1.0));
#263=DIRECTION('',(1.23259516440783E-032,-1.0,-1.22464679914735E-016));
#264=CARTESIAN_POINT('',(0.0,0.0,0.0));
#265=DIRECTION('',(6.12323399573677E-017,1.22464679914735E-016,-1.0));
#266=DIRECTION('',(-1.23259516440783E-032,1.0,1.22464679914735E-016));
#267=SURFACE_STYLE_FILL_AREA(#283);
#268=ORIENTED_EDGE('',*,*,#59,.F.);
#269=ORIENTED_EDGE('',*,*,#67,.T.);
#270=CARTESIAN_POINT('',(1.31649530908341E-016,2.63299061816682E-016,-2.15000000000001));
#271=DIRECTION('',(-6.12323399573677E-017,-1.22464679914735E-016,1.0));
#272=DIRECTION('',(-1.23259516440783E-032,1.0,1.22464679914735E-016));
#273=CARTESIAN_POINT('',(-1.63490254253036E-015,-3.26980508506071E-015,26.6999847412109));
#274=DIRECTION('',(6.12323399573677E-017,1.22464679914735E-016,-1.0));
#275=DIRECTION('',(-1.23259516440783E-032,1.0,1.22464679914735E-016));
#276=FILL_AREA_STYLE('',(#284));
#277=FILL_AREA_STYLE('',(#285));
#278=FILL_AREA_STYLE('',(#286));
#279=FILL_AREA_STYLE('',(#287));
#280=FILL_AREA_STYLE('',(#288));
#281=FILL_AREA_STYLE('',(#289));
#282=FILL_AREA_STYLE('',(#290));
#283=FILL_AREA_STYLE('',(#291));
#284=FILL_AREA_STYLE_COLOUR('',#292);
#285=FILL_AREA_STYLE_COLOUR('',#293);
#286=FILL_AREA_STYLE_COLOUR('',#294);
#287=FILL_AREA_STYLE_COLOUR('',#295);
#288=FILL_AREA_STYLE_COLOUR('',#296);
#289=FILL_AREA_STYLE_COLOUR('',#297);
#290=FILL_AREA_STYLE_COLOUR('',#298);
#291=FILL_AREA_STYLE_COLOUR('',#299);
#292=COLOUR_RGB('',0.0,1.0,0.0);
#293=COLOUR_RGB('',0.0,1.0,0.0);
#294=COLOUR_RGB('',0.0,1.0,0.0);
#295=COLOUR_RGB('',0.0,1.0,0.0);
#296=COLOUR_RGB('',0.0,1.0,0.0);
#297=COLOUR_RGB('',0.0,1.0,0.0);
#298=COLOUR_RGB('',0.0,1.0,0.0);
#299=COLOUR_RGB('',0.0,1.0,0.0);
ENDSEC;
END-ISO-10303-21;
