ISO-10303-21;
HEADER;
FILE_DESCRIPTION((''),'1');
FILE_NAME('T:/02_3D_Field-HP\X2\FF71FF6FFF8CFF9F5916\X0\2013/02_Step_Field-HP\X2\FF71FF6FFF8CFF9F5916\X0\2013/66_\X2\FF71FF78FF7EFF7BFF98FF70\X0\/MPS13-03035_0304.stp','2017-02-20T05:49:04',(''),(''),'Spatial Interop R21 SP3','Kubotek KeyCreator 2011 V10.0.2 (22737)',' ');
FILE_SCHEMA(('automotive_design'));
ENDSEC;
DATA;
#1=MECHANICAL_DESIGN_GEOMETRIC_PRESENTATION_REPRESENTATION(' ',(#10,#11,#12,#13,#14,#15,#16,#17,#18,#19,#20,#21,#22,#23),#6);
#2=PRODUCT_DEFINITION_CONTEXT('',#24,'design');
#3=APPLICATION_PROTOCOL_DEFINITION('INTERNATIONAL STANDARD','automotive_design',1994,#24);
#4=PRODUCT_CATEGORY_RELATIONSHIP('NONE','NONE',#25,#26);
#5=SHAPE_DEFINITION_REPRESENTATION(#27,#28);
#6= (GEOMETRIC_REPRESENTATION_CONTEXT(3)GLOBAL_UNCERTAINTY_ASSIGNED_CONTEXT((#31))GLOBAL_UNIT_ASSIGNED_CONTEXT((#33,#34,#35))REPRESENTATION_CONTEXT('NONE','WORKSPACE'));
#10=STYLED_ITEM('',(#37,#38),#39);
#11=STYLED_ITEM('',(#40,#41),#42);
#12=STYLED_ITEM('',(#43),#44);
#13=STYLED_ITEM('',(#45),#46);
#14=STYLED_ITEM('',(#47,#48),#49);
#15=STYLED_ITEM('',(#50,#51),#52);
#16=STYLED_ITEM('',(#53),#54);
#17=STYLED_ITEM('',(#55,#56),#57);
#18=STYLED_ITEM('',(#58,#59),#60);
#19=STYLED_ITEM('',(#61),#62);
#20=STYLED_ITEM('',(#63),#64);
#21=STYLED_ITEM('',(#65,#66),#67);
#22=STYLED_ITEM('',(#68,#69),#70);
#23=STYLED_ITEM('',(#71),#72);
#24=APPLICATION_CONTEXT(' ');
#25=PRODUCT_CATEGORY('part','NONE');
#26=PRODUCT_RELATED_PRODUCT_CATEGORY('detail',' ',(#73));
#27=PRODUCT_DEFINITION_SHAPE('NONE','NONE',#74);
#28=ADVANCED_BREP_SHAPE_REPRESENTATION('Unnamed[1]',(#67,#75),#6);
#31=UNCERTAINTY_MEASURE_WITH_UNIT(LENGTH_MEASURE(1.0E-006),#33,'','');
#33= (CONVERSION_BASED_UNIT('MILLIMETRE',#78)LENGTH_UNIT()NAMED_UNIT(#81));
#34= (NAMED_UNIT(#83)PLANE_ANGLE_UNIT()SI_UNIT($,.RADIAN.));
#35= (NAMED_UNIT(#83)SOLID_ANGLE_UNIT()SI_UNIT($,.STERADIAN.));
#37=PRESENTATION_STYLE_ASSIGNMENT((#89));
#38=PRESENTATION_STYLE_ASSIGNMENT((#90));
#39=ADVANCED_FACE('Unnamed[1]',(#91),#92,.T.);
#40=PRESENTATION_STYLE_ASSIGNMENT((#93));
#41=PRESENTATION_STYLE_ASSIGNMENT((#94));
#42=ADVANCED_FACE('Unnamed[1]',(#95,#96),#97,.T.);
#43=PRESENTATION_STYLE_ASSIGNMENT((#98));
#44=EDGE_CURVE('Unnamed[1]',#99,#99,#100,.T.);
#45=PRESENTATION_STYLE_ASSIGNMENT((#101));
#46=EDGE_CURVE('Unnamed[1]',#102,#102,#103,.T.);
#47=PRESENTATION_STYLE_ASSIGNMENT((#104));
#48=PRESENTATION_STYLE_ASSIGNMENT((#105));
#49=ADVANCED_FACE('Unnamed[1]',(#106,#107),#108,.T.);
#50=PRESENTATION_STYLE_ASSIGNMENT((#109));
#51=PRESENTATION_STYLE_ASSIGNMENT((#110));
#52=ADVANCED_FACE('Unnamed[1]',(#111,#112),#113,.T.);
#53=PRESENTATION_STYLE_ASSIGNMENT((#114));
#54=EDGE_CURVE('Unnamed[1]',#115,#115,#116,.T.);
#55=PRESENTATION_STYLE_ASSIGNMENT((#117));
#56=PRESENTATION_STYLE_ASSIGNMENT((#118));
#57=ADVANCED_FACE('Unnamed[1]',(#119,#120),#121,.T.);
#58=PRESENTATION_STYLE_ASSIGNMENT((#122));
#59=PRESENTATION_STYLE_ASSIGNMENT((#123));
#60=ADVANCED_FACE('Unnamed[1]',(#124),#125,.T.);
#61=PRESENTATION_STYLE_ASSIGNMENT((#126));
#62=EDGE_CURVE('Unnamed[1]',#127,#127,#128,.T.);
#63=PRESENTATION_STYLE_ASSIGNMENT((#129));
#64=EDGE_CURVE('Unnamed[1]',#130,#130,#131,.T.);
#65=PRESENTATION_STYLE_ASSIGNMENT((#132));
#66=PRESENTATION_STYLE_ASSIGNMENT((#133));
#67=MANIFOLD_SOLID_BREP('Unnamed[1]',#134);
#68=PRESENTATION_STYLE_ASSIGNMENT((#135));
#69=PRESENTATION_STYLE_ASSIGNMENT((#136));
#70=ADVANCED_FACE('Unnamed[1]',(#137,#138),#139,.T.);
#71=PRESENTATION_STYLE_ASSIGNMENT((#140));
#72=EDGE_CURVE('Unnamed[1]',#141,#141,#142,.T.);
#73=PRODUCT('Unnamed[1]','Unnamed[1]','PART-Unnamed[1]-DESC',(#143));
#74=PRODUCT_DEFINITION('NONE','NONE',#144,#2);
#75=AXIS2_PLACEMENT_3D('',#145,#146,#147);
#78=LENGTH_MEASURE_WITH_UNIT(LENGTH_MEASURE(1.0),#148);
#81=DIMENSIONAL_EXPONENTS(1.0,0.0,0.0,0.0,0.0,0.0,0.0);
#83=DIMENSIONAL_EXPONENTS(0.0,0.0,0.0,0.0,0.0,0.0,0.0);
#89=SURFACE_STYLE_USAGE(.BOTH.,#149);
#90=CURVE_STYLE('',#150,POSITIVE_LENGTH_MEASURE(1000.0),#151);
#91=FACE_OUTER_BOUND('',#152,.T.);
#92=PLANE('',#153);
#93=SURFACE_STYLE_USAGE(.BOTH.,#154);
#94=CURVE_STYLE('',#155,POSITIVE_LENGTH_MEASURE(1000.0),#156);
#95=FACE_BOUND('',#157,.T.);
#96=FACE_OUTER_BOUND('',#158,.T.);
#97=PLANE('',#159);
#98=CURVE_STYLE('',#160,POSITIVE_LENGTH_MEASURE(1000.0),#161);
#99=VERTEX_POINT('',#162);
#100=CIRCLE('',#163,17.65);
#101=CURVE_STYLE('',#164,POSITIVE_LENGTH_MEASURE(1000.0),#165);
#102=VERTEX_POINT('',#166);
#103=CIRCLE('',#167,17.65);
#104=SURFACE_STYLE_USAGE(.BOTH.,#168);
#105=CURVE_STYLE('',#169,POSITIVE_LENGTH_MEASURE(1000.0),#170);
#106=FACE_BOUND('',#171,.T.);
#107=FACE_BOUND('',#172,.T.);
#108=CONICAL_SURFACE('',#173,17.575,0.785398163397448);
#109=SURFACE_STYLE_USAGE(.BOTH.,#174);
#110=CURVE_STYLE('',#175,POSITIVE_LENGTH_MEASURE(1000.0),#176);
#111=FACE_BOUND('',#177,.T.);
#112=FACE_BOUND('',#178,.T.);
#113=CONICAL_SURFACE('',#179,10.1850570548695,1.09548227813141);
#114=CURVE_STYLE('',#180,POSITIVE_LENGTH_MEASURE(1000.0),#181);
#115=VERTEX_POINT('',#182);
#116=CIRCLE('',#183,17.5);
#117=SURFACE_STYLE_USAGE(.BOTH.,#184);
#118=CURVE_STYLE('',#185,POSITIVE_LENGTH_MEASURE(1000.0),#186);
#119=FACE_BOUND('',#187,.T.);
#120=FACE_BOUND('',#188,.T.);
#121=CYLINDRICAL_SURFACE('',#189,17.65);
#122=SURFACE_STYLE_USAGE(.BOTH.,#190);
#123=CURVE_STYLE('',#191,POSITIVE_LENGTH_MEASURE(1000.0),#192);
#124=FACE_OUTER_BOUND('',#193,.T.);
#125=PLANE('',#194);
#126=CURVE_STYLE('',#195,POSITIVE_LENGTH_MEASURE(1000.0),#196);
#127=VERTEX_POINT('',#197);
#128=CIRCLE('',#198,17.5);
#129=CURVE_STYLE('',#199,POSITIVE_LENGTH_MEASURE(1000.0),#200);
#130=VERTEX_POINT('',#201);
#131=CIRCLE('',#202,14.3624969482422);
#132=SURFACE_STYLE_USAGE(.BOTH.,#203);
#133=CURVE_STYLE('',#204,POSITIVE_LENGTH_MEASURE(1000.0),#205);
#134=CLOSED_SHELL('',(#39,#57,#49,#70,#42,#52,#60));
#135=SURFACE_STYLE_USAGE(.BOTH.,#206);
#136=CURVE_STYLE('',#207,POSITIVE_LENGTH_MEASURE(1000.0),#208);
#137=FACE_BOUND('',#209,.T.);
#138=FACE_BOUND('',#210,.T.);
#139=CYLINDRICAL_SURFACE('',#211,17.5);
#140=CURVE_STYLE('',#212,POSITIVE_LENGTH_MEASURE(1000.0),#213);
#141=VERTEX_POINT('',#214);
#142=CIRCLE('',#215,6.00761716149669);
#143=PRODUCT_CONTEXT('',#24,'mechanical');
#144=PRODUCT_DEFINITION_FORMATION_WITH_SPECIFIED_SOURCE(' ','NONE',#73,.NOT_KNOWN.);
#145=CARTESIAN_POINT('',(0.0,0.0,0.0));
#146=DIRECTION('',(0.0,0.0,1.0));
#147=DIRECTION('',(1.0,0.0,0.0));
#148= (NAMED_UNIT(#81)LENGTH_UNIT()SI_UNIT(.MILLI.,.METRE.));
#149=SURFACE_SIDE_STYLE('',(#217));
#150=DRAUGHTING_PRE_DEFINED_CURVE_FONT('continuous');
#151=COLOUR_RGB('',0.0,1.0,0.0);
#152=EDGE_LOOP('',(#218));
#153=AXIS2_PLACEMENT_3D('',#219,#220,#221);
#154=SURFACE_SIDE_STYLE('',(#222));
#155=DRAUGHTING_PRE_DEFINED_CURVE_FONT('continuous');
#156=COLOUR_RGB('',0.0,1.0,0.0);
#157=EDGE_LOOP('',(#223));
#158=EDGE_LOOP('',(#224));
#159=AXIS2_PLACEMENT_3D('',#225,#226,#227);
#160=DRAUGHTING_PRE_DEFINED_CURVE_FONT('continuous');
#161=COLOUR_RGB('',0.0,1.0,0.0);
#162=CARTESIAN_POINT('',(-1.63490254253036E-015,17.65,26.6999847412109));
#163=AXIS2_PLACEMENT_3D('',#228,#229,#230);
#164=DRAUGHTING_PRE_DEFINED_CURVE_FONT('continuous');
#165=COLOUR_RGB('',0.0,1.0,0.0);
#166=CARTESIAN_POINT('',(-1.51636980929673E-015,17.65,24.7641983035841));
#167=AXIS2_PLACEMENT_3D('',#231,#232,#233);
#168=SURFACE_SIDE_STYLE('',(#234));
#169=DRAUGHTING_PRE_DEFINED_CURVE_FONT('continuous');
#170=COLOUR_RGB('',0.0,1.0,0.0);
#171=EDGE_LOOP('',(#235));
#172=EDGE_LOOP('',(#236));
#173=AXIS2_PLACEMENT_3D('',#237,#238,#239);
#174=SURFACE_SIDE_STYLE('',(#240));
#175=DRAUGHTING_PRE_DEFINED_CURVE_FONT('continuous');
#176=COLOUR_RGB('',0.0,1.0,0.0);
#177=EDGE_LOOP('',(#241));
#178=EDGE_LOOP('',(#242));
#179=AXIS2_PLACEMENT_3D('',#243,#244,#245);
#180=DRAUGHTING_PRE_DEFINED_CURVE_FONT('continuous');
#181=COLOUR_RGB('',0.0,1.0,0.0);
#182=CARTESIAN_POINT('',(-1.50718495830312E-015,17.5,24.6141983035841));
#183=AXIS2_PLACEMENT_3D('',#246,#247,#248);
#184=SURFACE_SIDE_STYLE('',(#249));
#185=DRAUGHTING_PRE_DEFINED_CURVE_FONT('continuous');
#186=COLOUR_RGB('',0.0,1.0,0.0);
#187=EDGE_LOOP('',(#250));
#188=EDGE_LOOP('',(#251));
#189=AXIS2_PLACEMENT_3D('',#252,#253,#254);
#190=SURFACE_SIDE_STYLE('',(#255));
#191=DRAUGHTING_PRE_DEFINED_CURVE_FONT('continuous');
#192=COLOUR_RGB('',0.0,1.0,0.0);
#193=EDGE_LOOP('',(#256));
#194=AXIS2_PLACEMENT_3D('',#257,#258,#259);
#195=DRAUGHTING_PRE_DEFINED_CURVE_FONT('continuous');
#196=COLOUR_RGB('',0.0,1.0,0.0);
#197=CARTESIAN_POINT('',(-1.97215226305253E-031,17.5,1.77635683940025E-015));
#198=AXIS2_PLACEMENT_3D('',#260,#261,#262);
#199=DRAUGHTING_PRE_DEFINED_CURVE_FONT('continuous');
#200=COLOUR_RGB('',0.0,1.0,0.0);
#201=CARTESIAN_POINT('',(-1.97215226305253E-031,14.3624969482422,1.77635683940025E-015));
#202=AXIS2_PLACEMENT_3D('',#263,#264,#265);
#203=SURFACE_SIDE_STYLE('',(#266));
#204=DRAUGHTING_PRE_DEFINED_CURVE_FONT('continuous');
#205=COLOUR_RGB('',0.0,1.0,0.0);
#206=SURFACE_SIDE_STYLE('',(#267));
#207=DRAUGHTING_PRE_DEFINED_CURVE_FONT('continuous');
#208=COLOUR_RGB('',0.0,1.0,0.0);
#209=EDGE_LOOP('',(#268));
#210=EDGE_LOOP('',(#269));
#211=AXIS2_PLACEMENT_3D('',#270,#271,#272);
#212=DRAUGHTING_PRE_DEFINED_CURVE_FONT('continuous');
#213=COLOUR_RGB('',0.0,1.0,0.0);
#214=CARTESIAN_POINT('',(2.63299061816682E-016,6.00761716149669,-4.30000000000001));
#215=AXIS2_PLACEMENT_3D('',#273,#274,#275);
#217=SURFACE_STYLE_FILL_AREA(#276);
#218=ORIENTED_EDGE('',*,*,#44,.F.);
#219=CARTESIAN_POINT('',(-1.63490254253036E-015,8.825,26.6999847412109));
#220=DIRECTION('',(-6.12323399573677E-017,-1.22464679914735E-016,1.0));
#221=DIRECTION('',(1.23259516440783E-032,-1.0,-1.22464679914735E-016));
#222=SURFACE_STYLE_FILL_AREA(#277);
#223=ORIENTED_EDGE('',*,*,#64,.F.);
#224=ORIENTED_EDGE('',*,*,#62,.T.);
#225=CARTESIAN_POINT('',(-1.97215226305253E-031,15.9312484741211,1.77635683940025E-015));
#226=DIRECTION('',(6.12323399573677E-017,1.22464679914735E-016,-1.0));
#227=DIRECTION('',(-1.23259516440783E-032,1.0,1.22464679914735E-016));
#228=CARTESIAN_POINT('',(-1.63490254253036E-015,-3.26980508506071E-015,26.6999847412109));
#229=DIRECTION('',(6.12323399573677E-017,1.22464679914735E-016,-1.0));
#230=DIRECTION('',(-1.23259516440783E-032,1.0,1.22464679914735E-016));
#231=CARTESIAN_POINT('',(-1.51636980929673E-015,-3.03273961859346E-015,24.7641983035841));
#232=DIRECTION('',(6.12323399573677E-017,1.22464679914735E-016,-1.0));
#233=DIRECTION('',(-1.23259516440783E-032,1.0,1.22464679914735E-016));
#234=SURFACE_STYLE_FILL_AREA(#278);
#235=ORIENTED_EDGE('',*,*,#54,.F.);
#236=ORIENTED_EDGE('',*,*,#46,.T.);
#237=CARTESIAN_POINT('',(-1.51177738379993E-015,-3.02355476759985E-015,24.6891983035841));
#238=DIRECTION('',(-6.12323399573677E-017,-1.22464679914735E-016,1.0));
#239=DIRECTION('',(-1.23259516440783E-032,1.0,1.22464679914735E-016));
#240=SURFACE_STYLE_FILL_AREA(#279);
#241=ORIENTED_EDGE('',*,*,#72,.F.);
#242=ORIENTED_EDGE('',*,*,#64,.T.);
#243=CARTESIAN_POINT('',(1.31649530908341E-016,2.63299061816682E-016,-2.15000000000001));
#244=DIRECTION('',(-6.12323399573676E-017,-1.22464679914735E-016,1.0));
#245=DIRECTION('',(-1.23259516440783E-032,1.0,1.22464679914735E-016));
#246=CARTESIAN_POINT('',(-1.50718495830312E-015,-3.01436991660624E-015,24.6141983035841));
#247=DIRECTION('',(6.12323399573677E-017,1.22464679914735E-016,-1.0));
#248=DIRECTION('',(-1.23259516440783E-032,1.0,1.22464679914735E-016));
#249=SURFACE_STYLE_FILL_AREA(#280);
#250=ORIENTED_EDGE('',*,*,#46,.F.);
#251=ORIENTED_EDGE('',*,*,#44,.T.);
#252=CARTESIAN_POINT('',(-1.57563617591354E-015,-3.15127235182708E-015,25.7320915223975));
#253=DIRECTION('',(6.12323399573677E-017,1.22464679914735E-016,-1.0));
#254=DIRECTION('',(-1.23259516440783E-032,1.0,1.22464679914735E-016));
#255=SURFACE_STYLE_FILL_AREA(#281);
#256=ORIENTED_EDGE('',*,*,#72,.T.);
#257=CARTESIAN_POINT('',(2.63299061816682E-016,3.00380858074834,-4.30000000000001));
#258=DIRECTION('',(6.12323399573677E-017,1.22464679914735E-016,-1.0));
#259=DIRECTION('',(-1.23259516440783E-032,1.0,1.22464679914735E-016));
#260=CARTESIAN_POINT('',(0.0,0.0,0.0));
#261=DIRECTION('',(6.12323399573677E-017,1.22464679914735E-016,-1.0));
#262=DIRECTION('',(-1.23259516440783E-032,1.0,1.22464679914735E-016));
#263=CARTESIAN_POINT('',(0.0,0.0,0.0));
#264=DIRECTION('',(6.12323399573677E-017,1.22464679914735E-016,-1.0));
#265=DIRECTION('',(-1.23259516440783E-032,1.0,1.22464679914735E-016));
#266=SURFACE_STYLE_FILL_AREA(#282);
#267=SURFACE_STYLE_FILL_AREA(#283);
#268=ORIENTED_EDGE('',*,*,#62,.F.);
#269=ORIENTED_EDGE('',*,*,#54,.T.);
#270=CARTESIAN_POINT('',(-7.53592479151561E-016,-1.50718495830312E-015,12.307099151792));
#271=DIRECTION('',(6.12323399573677E-017,1.22464679914735E-016,-1.0));
#272=DIRECTION('',(-1.23259516440783E-032,1.0,1.22464679914735E-016));
#273=CARTESIAN_POINT('',(2.63299061816682E-016,5.26598123633363E-016,-4.30000000000001));
#274=DIRECTION('',(6.12323399573677E-017,1.22464679914735E-016,-1.0));
#275=DIRECTION('',(-1.23259516440783E-032,1.0,1.22464679914735E-016));
#276=FILL_AREA_STYLE('',(#284));
#277=FILL_AREA_STYLE('',(#285));
#278=FILL_AREA_STYLE('',(#286));
#279=FILL_AREA_STYLE('',(#287));
#280=FILL_AREA_STYLE('',(#288));
#281=FILL_AREA_STYLE('',(#289));
#282=FILL_AREA_STYLE('',(#290));
#283=FILL_AREA_STYLE('',(#291));
#284=FILL_AREA_STYLE_COLOUR('',#292);
#285=FILL_AREA_STYLE_COLOUR('',#293);
#286=FILL_AREA_STYLE_COLOUR('',#294);
#287=FILL_AREA_STYLE_COLOUR('',#295);
#288=FILL_AREA_STYLE_COLOUR('',#296);
#289=FILL_AREA_STYLE_COLOUR('',#297);
#290=FILL_AREA_STYLE_COLOUR('',#298);
#291=FILL_AREA_STYLE_COLOUR('',#299);
#292=COLOUR_RGB('',0.0,1.0,0.0);
#293=COLOUR_RGB('',0.0,1.0,0.0);
#294=COLOUR_RGB('',0.0,1.0,0.0);
#295=COLOUR_RGB('',0.0,1.0,0.0);
#296=COLOUR_RGB('',0.0,1.0,0.0);
#297=COLOUR_RGB('',0.0,1.0,0.0);
#298=COLOUR_RGB('',0.0,1.0,0.0);
#299=COLOUR_RGB('',0.0,1.0,0.0);
ENDSEC;
END-ISO-10303-21;
