ISO-10303-21;
HEADER;
FILE_DESCRIPTION((''),'1');
FILE_NAME('//Big_tech03/bigt/Translate/11_3D_Field/02_Step_Field/31_\X2\30E130AC30B730F330AF30ED30BF30C330D430F330B030DB30EB30C0\X0\ MGT/11_\X2\30BF30C330D730DB30EB30C0\X0\/MGT36-P1-65.stp','2013-07-25T04:38:17',(''),(''),'Spatial Interop R18','Kubotek KeyCreator V8.5.1 (14335)',' ');
FILE_SCHEMA(('CONFIG_CONTROL_DESIGN'));
ENDSEC;
DATA;
#1=DESIGN_CONTEXT('',#27,'design');
#2=APPLICATION_PROTOCOL_DEFINITION('INTERNATIONAL STANDARD','config_control_design',1994,#27);
#3=PRODUCT_CATEGORY_RELATIONSHIP('NONE','NONE',#28,#29);
#4=DATE_AND_TIME(#30,#31);
#5=DATE_TIME_ROLE('creation_date');
#6=DATE_TIME_ROLE('classification_date');
#7=PERSON_AND_ORGANIZATION_ROLE('creator');
#8=PERSON_AND_ORGANIZATION_ROLE('design_supplier');
#9=PERSON_AND_ORGANIZATION_ROLE('classification_officer');
#10=PERSON_AND_ORGANIZATION_ROLE('design_owner');
#11=APPROVAL_PERSON_ORGANIZATION(#32,#33,#34);
#12=APPROVAL_DATE_TIME(#4,#33);
#13=CC_DESIGN_APPROVAL(#33,(#35,#36,#37));
#14=CC_DESIGN_DATE_AND_TIME_ASSIGNMENT(#4,#5,(#37));
#15=CC_DESIGN_DATE_AND_TIME_ASSIGNMENT(#4,#6,(#35));
#16=CC_DESIGN_PERSON_AND_ORGANIZATION_ASSIGNMENT(#32,#10,(#38));
#17=CC_DESIGN_PERSON_AND_ORGANIZATION_ASSIGNMENT(#32,#7,(#37));
#18=CC_DESIGN_PERSON_AND_ORGANIZATION_ASSIGNMENT(#32,#7,(#36));
#19=CC_DESIGN_PERSON_AND_ORGANIZATION_ASSIGNMENT(#32,#8,(#36));
#20=CC_DESIGN_SECURITY_CLASSIFICATION(#35,(#36));
#21=CC_DESIGN_PERSON_AND_ORGANIZATION_ASSIGNMENT(#32,#9,(#35));
#22=SHAPE_DEFINITION_REPRESENTATION(#39,#40);
#23= (GEOMETRIC_REPRESENTATION_CONTEXT(3)GLOBAL_UNCERTAINTY_ASSIGNED_CONTEXT((#43))GLOBAL_UNIT_ASSIGNED_CONTEXT((#45,#46,#47))REPRESENTATION_CONTEXT('NONE','WORKSPACE'));
#27=APPLICATION_CONTEXT('CONFIGURATION CONTROLLED 3D DESIGNS OF MECHANICAL PARTS AND ASSEMBLIES');
#28=PRODUCT_CATEGORY('part','NONE');
#29=PRODUCT_RELATED_PRODUCT_CATEGORY('detail',' ',(#38));
#30=CALENDAR_DATE(2013,25,6);
#31=LOCAL_TIME(13,38,17.0,#49);
#32=PERSON_AND_ORGANIZATION(#50,#51);
#33=APPROVAL(#52,'SOLID MODEL');
#34=APPROVAL_ROLE('APPROVED');
#35=SECURITY_CLASSIFICATION('','',#53);
#36=PRODUCT_DEFINITION_FORMATION_WITH_SPECIFIED_SOURCE(' ','NONE',#38,.NOT_KNOWN.);
#37=PRODUCT_DEFINITION('NONE','NONE',#36,#1);
#38=PRODUCT('1','1','PART-1-DESC',(#54));
#39=PRODUCT_DEFINITION_SHAPE('NONE','NONE',#37);
#40=ADVANCED_BREP_SHAPE_REPRESENTATION('1',(#55,#56),#23);
#43=UNCERTAINTY_MEASURE_WITH_UNIT(LENGTH_MEASURE(1.0E-006),#45,'','');
#45= (CONVERSION_BASED_UNIT('MILLIMETRE',#59)LENGTH_UNIT()NAMED_UNIT(#62));
#46= (NAMED_UNIT(#64)PLANE_ANGLE_UNIT()SI_UNIT($,.RADIAN.));
#47= (NAMED_UNIT(#64)SOLID_ANGLE_UNIT()SI_UNIT($,.STERADIAN.));
#49=COORDINATED_UNIVERSAL_TIME_OFFSET(9,0,.AHEAD.);
#50=PERSON('','UNSPECIFIED',$,$,$,$);
#51=ORGANIZATION('UNSPECIFIED','UNSPECIFIED','UNSPECIFIED');
#52=APPROVAL_STATUS('approved');
#53=SECURITY_CLASSIFICATION_LEVEL('unclassified');
#54=MECHANICAL_CONTEXT('',#27,'mechanical');
#55=MANIFOLD_SOLID_BREP('1',#70);
#56=AXIS2_PLACEMENT_3D('',#71,#72,#73);
#59=LENGTH_MEASURE_WITH_UNIT(LENGTH_MEASURE(1.0),#74);
#62=DIMENSIONAL_EXPONENTS(1.0,0.0,0.0,0.0,0.0,0.0,0.0);
#64=DIMENSIONAL_EXPONENTS(0.0,0.0,0.0,0.0,0.0,0.0,0.0);
#70=CLOSED_SHELL('',(#75,#76,#77,#78,#79,#80,#81,#82,#83,#84));
#71=CARTESIAN_POINT('',(0.0,0.0,0.0));
#72=DIRECTION('',(0.0,0.0,1.0));
#73=DIRECTION('',(1.0,0.0,0.0));
#74= (NAMED_UNIT(#62)LENGTH_UNIT()SI_UNIT(.MILLI.,.METRE.));
#75=ADVANCED_FACE('',(#86),#87,.T.);
#76=ADVANCED_FACE('',(#88,#89),#90,.T.);
#77=ADVANCED_FACE('',(#91,#92),#93,.T.);
#78=ADVANCED_FACE('',(#94,#95),#96,.T.);
#79=ADVANCED_FACE('',(#97,#98),#99,.T.);
#80=ADVANCED_FACE('',(#100,#101),#102,.T.);
#81=ADVANCED_FACE('',(#103,#104),#105,.T.);
#82=ADVANCED_FACE('',(#106,#107),#108,.T.);
#83=ADVANCED_FACE('',(#109,#110),#111,.T.);
#84=ADVANCED_FACE('',(#112),#113,.T.);
#86=FACE_OUTER_BOUND('',#114,.T.);
#87=PLANE('',#115);
#88=FACE_BOUND('',#116,.T.);
#89=FACE_BOUND('',#117,.T.);
#90=CYLINDRICAL_SURFACE('',#118,19.9999999999854);
#91=FACE_OUTER_BOUND('',#119,.T.);
#92=FACE_BOUND('',#120,.T.);
#93=PLANE('',#121);
#94=FACE_BOUND('',#122,.T.);
#95=FACE_BOUND('',#123,.T.);
#96=CYLINDRICAL_SURFACE('',#124,26.4999999999811);
#97=FACE_BOUND('',#125,.T.);
#98=FACE_BOUND('',#126,.T.);
#99=CONICAL_SURFACE('',#127,26.7499999999782,0.349065850398422);
#100=FACE_BOUND('',#128,.T.);
#101=FACE_BOUND('',#129,.T.);
#102=CYLINDRICAL_SURFACE('',#130,26.9999999999782);
#103=FACE_BOUND('',#131,.T.);
#104=FACE_BOUND('',#132,.T.);
#105=CONICAL_SURFACE('',#133,25.9999999999912,1.30899693899344);
#106=FACE_BOUND('',#134,.T.);
#107=FACE_BOUND('',#135,.T.);
#108=CYLINDRICAL_SURFACE('',#136,24.9999999999997);
#109=FACE_BOUND('',#137,.T.);
#110=FACE_BOUND('',#138,.T.);
#111=CONICAL_SURFACE('',#139,23.4999999999962,0.785398163397201);
#112=FACE_OUTER_BOUND('',#140,.T.);
#113=PLANE('',#141);
#114=EDGE_LOOP('',(#142));
#115=AXIS2_PLACEMENT_3D('',#143,#144,#145);
#116=EDGE_LOOP('',(#146));
#117=EDGE_LOOP('',(#147));
#118=AXIS2_PLACEMENT_3D('',#148,#149,#150);
#119=EDGE_LOOP('',(#151));
#120=EDGE_LOOP('',(#152));
#121=AXIS2_PLACEMENT_3D('',#153,#154,#155);
#122=EDGE_LOOP('',(#156));
#123=EDGE_LOOP('',(#157));
#124=AXIS2_PLACEMENT_3D('',#158,#159,#160);
#125=EDGE_LOOP('',(#161));
#126=EDGE_LOOP('',(#162));
#127=AXIS2_PLACEMENT_3D('',#163,#164,#165);
#128=EDGE_LOOP('',(#166));
#129=EDGE_LOOP('',(#167));
#130=AXIS2_PLACEMENT_3D('',#168,#169,#170);
#131=EDGE_LOOP('',(#171));
#132=EDGE_LOOP('',(#172));
#133=AXIS2_PLACEMENT_3D('',#173,#174,#175);
#134=EDGE_LOOP('',(#176));
#135=EDGE_LOOP('',(#177));
#136=AXIS2_PLACEMENT_3D('',#178,#179,#180);
#137=EDGE_LOOP('',(#181));
#138=EDGE_LOOP('',(#182));
#139=AXIS2_PLACEMENT_3D('',#183,#184,#185);
#140=EDGE_LOOP('',(#186));
#141=AXIS2_PLACEMENT_3D('',#187,#188,#189);
#142=ORIENTED_EDGE('',*,*,#190,.F.);
#143=CARTESIAN_POINT('',(-9.4910126933922E-015,9.9999999999927,155.000000000003));
#144=DIRECTION('',(-6.12323399573677E-017,4.74838986160466E-014,1.0));
#145=DIRECTION('',(-2.90272306982818E-030,-1.0,4.74838986160466E-014));
#146=ORIENTED_EDGE('',*,*,#191,.F.);
#147=ORIENTED_EDGE('',*,*,#190,.T.);
#148=CARTESIAN_POINT('',(-7.28664845492696E-015,-1.45732969098539E-014,119.000000000003));
#149=DIRECTION('',(-6.12323399573677E-017,-1.22464679914735E-016,1.0));
#150=DIRECTION('',(-1.23259516440783E-032,1.0,1.22464679914735E-016));
#151=ORIENTED_EDGE('',*,*,#192,.F.);
#152=ORIENTED_EDGE('',*,*,#191,.T.);
#153=CARTESIAN_POINT('',(-5.08228421646176E-015,23.2499999999847,83.0000000000039));
#154=DIRECTION('',(-6.12323399573677E-017,-6.69036015114937E-016,1.0));
#155=DIRECTION('',(4.57937934520094E-032,-1.0,-6.69036015114937E-016));
#156=ORIENTED_EDGE('',*,*,#193,.F.);
#157=ORIENTED_EDGE('',*,*,#192,.T.);
#158=CARTESIAN_POINT('',(-4.80673868665366E-015,-9.61347737330728E-015,78.5000000000049));
#159=DIRECTION('',(-6.12323399573677E-017,-1.22464679914735E-016,1.0));
#160=DIRECTION('',(-1.23259516440783E-032,1.0,1.22464679914735E-016));
#161=ORIENTED_EDGE('',*,*,#194,.F.);
#162=ORIENTED_EDGE('',*,*,#193,.T.);
#163=CARTESIAN_POINT('',(-4.4891345390022E-015,-8.97826907800441E-015,73.3131306451412));
#164=DIRECTION('',(6.12323399573677E-017,1.22464679914735E-016,-1.0));
#165=DIRECTION('',(-1.23259516440783E-032,1.0,1.22464679914735E-016));
#166=ORIENTED_EDGE('',*,*,#195,.F.);
#167=ORIENTED_EDGE('',*,*,#194,.T.);
#168=CARTESIAN_POINT('',(-4.21358900919391E-015,-8.42717801838779E-015,68.8131306451391));
#169=DIRECTION('',(-6.12323399573677E-017,-1.22464679914735E-016,1.0));
#170=DIRECTION('',(-1.23259516440783E-032,1.0,1.22464679914735E-016));
#171=ORIENTED_EDGE('',*,*,#196,.F.);
#172=ORIENTED_EDGE('',*,*,#195,.T.);
#173=CARTESIAN_POINT('',(-3.96369494118681E-015,-7.92738988237352E-015,64.7320508075715));
#174=DIRECTION('',(-6.12323399573677E-017,-1.22464679914735E-016,1.0));
#175=DIRECTION('',(-1.23259516440783E-032,1.0,1.22464679914735E-016));
#176=ORIENTED_EDGE('',*,*,#197,.F.);
#177=ORIENTED_EDGE('',*,*,#196,.T.);
#178=CARTESIAN_POINT('',(-2.06549240250835E-015,-4.13098480501675E-015,33.7320508075704));
#179=DIRECTION('',(-6.12323399573677E-017,-1.22464679914735E-016,1.0));
#180=DIRECTION('',(-1.23259516440783E-032,1.0,1.22464679914735E-016));
#181=ORIENTED_EDGE('',*,*,#198,.F.);
#182=ORIENTED_EDGE('',*,*,#197,.T.);
#183=CARTESIAN_POINT('',(-9.18485099360316E-017,-1.8369701987204E-016,1.49999999999968));
#184=DIRECTION('',(-6.12323399573677E-017,-1.22464679914735E-016,1.0));
#185=DIRECTION('',(-1.23259516440783E-032,1.0,1.22464679914735E-016));
#186=ORIENTED_EDGE('',*,*,#198,.T.);
#187=CARTESIAN_POINT('',(-2.31136245229756E-028,10.9999999999986,3.78008735424373E-012));
#188=DIRECTION('',(6.12323399573677E-017,-3.43521840251376E-013,-1.0));
#189=DIRECTION('',(2.1029818952322E-029,1.0,-3.43521840251376E-013));
#190=EDGE_CURVE('',#199,#199,#200,.T.);
#191=EDGE_CURVE('',#201,#201,#202,.T.);
#192=EDGE_CURVE('',#203,#203,#204,.T.);
#193=EDGE_CURVE('',#205,#205,#206,.T.);
#194=EDGE_CURVE('',#207,#207,#208,.T.);
#195=EDGE_CURVE('',#209,#209,#210,.T.);
#196=EDGE_CURVE('',#211,#211,#212,.T.);
#197=EDGE_CURVE('',#213,#213,#214,.T.);
#198=EDGE_CURVE('',#215,#215,#216,.T.);
#199=VERTEX_POINT('',#217);
#200=CIRCLE('',#218,19.9999999999854);
#201=VERTEX_POINT('',#219);
#202=CIRCLE('',#220,19.9999999999854);
#203=VERTEX_POINT('',#221);
#204=CIRCLE('',#222,26.499999999984);
#205=VERTEX_POINT('',#223);
#206=CIRCLE('',#224,26.4999999999782);
#207=VERTEX_POINT('',#225);
#208=CIRCLE('',#226,26.9999999999782);
#209=VERTEX_POINT('',#227);
#210=CIRCLE('',#228,26.9999999999782);
#211=VERTEX_POINT('',#229);
#212=CIRCLE('',#230,25.0000000000042);
#213=VERTEX_POINT('',#231);
#214=CIRCLE('',#232,24.9999999999952);
#215=VERTEX_POINT('',#233);
#216=CIRCLE('',#234,21.9999999999973);
#217=CARTESIAN_POINT('',(-9.49101269339217E-015,19.9999999999854,155.000000000003));
#218=AXIS2_PLACEMENT_3D('',#235,#236,#237);
#219=CARTESIAN_POINT('',(-5.08228421646176E-015,19.9999999999854,83.0000000000039));
#220=AXIS2_PLACEMENT_3D('',#238,#239,#240);
#221=CARTESIAN_POINT('',(-5.08228421646176E-015,26.4999999999839,83.0000000000039));
#222=AXIS2_PLACEMENT_3D('',#241,#242,#243);
#223=CARTESIAN_POINT('',(-4.53119315684556E-015,26.4999999999781,74.0000000000058));
#224=AXIS2_PLACEMENT_3D('',#244,#245,#246);
#225=CARTESIAN_POINT('',(-4.44707592115883E-015,26.9999999999782,72.6262612902766));
#226=AXIS2_PLACEMENT_3D('',#247,#248,#249);
#227=CARTESIAN_POINT('',(-3.980102097229E-015,26.9999999999782,65.0000000000016));
#228=AXIS2_PLACEMENT_3D('',#250,#251,#252);
#229=CARTESIAN_POINT('',(-3.94728778514463E-015,25.0000000000042,64.4641016151414));
#230=AXIS2_PLACEMENT_3D('',#253,#254,#255);
#231=CARTESIAN_POINT('',(-1.83697019872064E-016,24.9999999999952,2.99999999999936));
#232=AXIS2_PLACEMENT_3D('',#256,#257,#258);
#233=CARTESIAN_POINT('',(0.0,21.9999999999973,0.0));
#234=AXIS2_PLACEMENT_3D('',#259,#260,#261);
#235=CARTESIAN_POINT('',(-9.49101269339217E-015,-1.89820253867843E-014,155.000000000003));
#236=DIRECTION('',(6.12323399573677E-017,1.22464679914735E-016,-1.0));
#237=DIRECTION('',(-1.23259516440783E-032,1.0,1.22464679914735E-016));
#238=CARTESIAN_POINT('',(-5.08228421646176E-015,-1.01645684329235E-014,83.0000000000039));
#239=DIRECTION('',(6.12323399573677E-017,1.22464679914735E-016,-1.0));
#240=DIRECTION('',(-1.23259516440783E-032,1.0,1.22464679914735E-016));
#241=CARTESIAN_POINT('',(-5.08228421646176E-015,-1.01645684329235E-014,83.0000000000039));
#242=DIRECTION('',(6.12323399573677E-017,1.22464679914735E-016,-1.0));
#243=DIRECTION('',(-1.23259516440783E-032,1.0,1.22464679914735E-016));
#244=CARTESIAN_POINT('',(-4.53119315684556E-015,-9.06238631369116E-015,74.0000000000058));
#245=DIRECTION('',(6.12323399573677E-017,1.22464679914735E-016,-1.0));
#246=DIRECTION('',(-1.23259516440783E-032,1.0,1.22464679914735E-016));
#247=CARTESIAN_POINT('',(-4.44707592115883E-015,-8.89415184231767E-015,72.6262612902766));
#248=DIRECTION('',(6.12323399573677E-017,1.22464679914735E-016,-1.0));
#249=DIRECTION('',(-1.23259516440783E-032,1.0,1.22464679914735E-016));
#250=CARTESIAN_POINT('',(-3.980102097229E-015,-7.96020419445801E-015,65.0000000000016));
#251=DIRECTION('',(6.12323399573677E-017,1.22464679914735E-016,-1.0));
#252=DIRECTION('',(-1.23259516440783E-032,1.0,1.22464679914735E-016));
#253=CARTESIAN_POINT('',(-3.94728778514463E-015,-7.89457557028923E-015,64.4641016151414));
#254=DIRECTION('',(6.12323399573677E-017,1.22464679914735E-016,-1.0));
#255=DIRECTION('',(-1.23259516440783E-032,1.0,1.22464679914735E-016));
#256=CARTESIAN_POINT('',(-1.83697019872064E-016,-3.67394039744079E-016,2.99999999999936));
#257=DIRECTION('',(6.12323399573677E-017,1.22464679914735E-016,-1.0));
#258=DIRECTION('',(-1.23259516440783E-032,1.0,1.22464679914735E-016));
#259=CARTESIAN_POINT('',(0.0,0.0,0.0));
#260=DIRECTION('',(6.12323399573677E-017,1.22464679914735E-016,-1.0));
#261=DIRECTION('',(-1.23259516440783E-032,1.0,1.22464679914735E-016));
ENDSEC;
END-ISO-10303-21;
