ISO-10303-21;
HEADER;
FILE_DESCRIPTION((''),'1');
FILE_NAME('T:/00_BIG-HP\X2\FF71FF6FFF8CFF9F\X0\/2022_\X2\30C030A630F330ED30FC30C930C730FC30BF\X0\/02_STEP\X2\FF83FF9EFF70FF80\X0\/LINK\X2\7528FF83FF9EFF70FF80FF8EFF99FF80FF9E\X0\/CK\X2\FF8DFF6FFF84FF9E30FBFF71FF78FF7EFF7BFF98\X0\/14_\X2\59165F84FF8EFF9EFF70FF98FF9DFF78FF9E\X0\/01_S\X2\FF80FF72FF8CFF9F\X0\/\X2\5EA76A19\X0\_\X2\5C5E6027590966F4\X0\/M1010-25.stp','2022-09-28T23:29:17',(''),(''),'Spatial Interop R21 SP3','Kubotek KeyCreator 2011 V10.0.2 (22737)',' ');
FILE_SCHEMA(('automotive_design'));
ENDSEC;
DATA;
#1=MECHANICAL_DESIGN_GEOMETRIC_PRESENTATION_REPRESENTATION(' ',(#10,#11,#12,#13,#14,#15,#16,#17,#18,#19,#20,#21,#22,#23,#24,#25,#26,#27,#28,#29,#30,#31,#32,#33,#34,#35,#36,#37),#6);
#2=PRODUCT_DEFINITION_CONTEXT('',#38,'design');
#3=APPLICATION_PROTOCOL_DEFINITION('INTERNATIONAL STANDARD','automotive_design',1994,#38);
#4=PRODUCT_CATEGORY_RELATIONSHIP('NONE','NONE',#39,#40);
#5=SHAPE_DEFINITION_REPRESENTATION(#41,#42);
#6= (GEOMETRIC_REPRESENTATION_CONTEXT(3)GLOBAL_UNCERTAINTY_ASSIGNED_CONTEXT((#45))GLOBAL_UNIT_ASSIGNED_CONTEXT((#47,#48,#49))REPRESENTATION_CONTEXT('NONE','WORKSPACE'));
#10=STYLED_ITEM('',(#51,#52),#53);
#11=STYLED_ITEM('',(#54),#55);
#12=STYLED_ITEM('',(#56),#57);
#13=STYLED_ITEM('',(#58),#59);
#14=STYLED_ITEM('',(#60),#61);
#15=STYLED_ITEM('',(#62),#63);
#16=STYLED_ITEM('',(#64,#65),#66);
#17=STYLED_ITEM('',(#67),#68);
#18=STYLED_ITEM('',(#69),#70);
#19=STYLED_ITEM('',(#71,#72),#73);
#20=STYLED_ITEM('',(#74,#75),#76);
#21=STYLED_ITEM('',(#77,#78),#79);
#22=STYLED_ITEM('',(#80),#81);
#23=STYLED_ITEM('',(#82),#83);
#24=STYLED_ITEM('',(#84),#85);
#25=STYLED_ITEM('',(#86,#87),#88);
#26=STYLED_ITEM('',(#89),#90);
#27=STYLED_ITEM('',(#91),#92);
#28=STYLED_ITEM('',(#93),#94);
#29=STYLED_ITEM('',(#95,#96),#97);
#30=STYLED_ITEM('',(#98,#99),#100);
#31=STYLED_ITEM('',(#101,#102),#103);
#32=STYLED_ITEM('',(#104,#105),#106);
#33=STYLED_ITEM('',(#107),#108);
#34=STYLED_ITEM('',(#109,#110),#111);
#35=STYLED_ITEM('',(#112,#113),#114);
#36=STYLED_ITEM('',(#115),#116);
#37=STYLED_ITEM('',(#117),#118);
#38=APPLICATION_CONTEXT(' ');
#39=PRODUCT_CATEGORY('part','NONE');
#40=PRODUCT_RELATED_PRODUCT_CATEGORY('detail',' ',(#119));
#41=PRODUCT_DEFINITION_SHAPE('NONE','NONE',#120);
#42=ADVANCED_BREP_SHAPE_REPRESENTATION('240[2]',(#97,#121),#6);
#45=UNCERTAINTY_MEASURE_WITH_UNIT(LENGTH_MEASURE(1.0E-006),#47,'','');
#47= (CONVERSION_BASED_UNIT('MILLIMETRE',#124)LENGTH_UNIT()NAMED_UNIT(#127));
#48= (NAMED_UNIT(#129)PLANE_ANGLE_UNIT()SI_UNIT($,.RADIAN.));
#49= (NAMED_UNIT(#129)SOLID_ANGLE_UNIT()SI_UNIT($,.STERADIAN.));
#51=PRESENTATION_STYLE_ASSIGNMENT((#135));
#52=PRESENTATION_STYLE_ASSIGNMENT((#136));
#53=ADVANCED_FACE('240[2]',(#137,#138,#139,#140),#141,.T.);
#54=PRESENTATION_STYLE_ASSIGNMENT((#142));
#55=EDGE_CURVE('240[2]',#143,#143,#144,.T.);
#56=PRESENTATION_STYLE_ASSIGNMENT((#145));
#57=EDGE_CURVE('240[2]',#146,#147,#148,.T.);
#58=PRESENTATION_STYLE_ASSIGNMENT((#149));
#59=EDGE_CURVE('240[2]',#147,#150,#151,.T.);
#60=PRESENTATION_STYLE_ASSIGNMENT((#152));
#61=EDGE_CURVE('240[2]',#153,#153,#154,.T.);
#62=PRESENTATION_STYLE_ASSIGNMENT((#155));
#63=EDGE_CURVE('240[2]',#146,#147,#156,.T.);
#64=PRESENTATION_STYLE_ASSIGNMENT((#157));
#65=PRESENTATION_STYLE_ASSIGNMENT((#158));
#66=ADVANCED_FACE('240[2]',(#159),#160,.F.);
#67=PRESENTATION_STYLE_ASSIGNMENT((#161));
#68=EDGE_CURVE('240[2]',#162,#163,#164,.T.);
#69=PRESENTATION_STYLE_ASSIGNMENT((#165));
#70=EDGE_CURVE('240[2]',#166,#150,#167,.T.);
#71=PRESENTATION_STYLE_ASSIGNMENT((#168));
#72=PRESENTATION_STYLE_ASSIGNMENT((#169));
#73=ADVANCED_FACE('240[2]',(#170),#171,.F.);
#74=PRESENTATION_STYLE_ASSIGNMENT((#172));
#75=PRESENTATION_STYLE_ASSIGNMENT((#173));
#76=ADVANCED_FACE('240[2]',(#174),#175,.F.);
#77=PRESENTATION_STYLE_ASSIGNMENT((#176));
#78=PRESENTATION_STYLE_ASSIGNMENT((#177));
#79=ADVANCED_FACE('240[2]',(#178),#179,.F.);
#80=PRESENTATION_STYLE_ASSIGNMENT((#180));
#81=EDGE_CURVE('240[2]',#166,#146,#181,.T.);
#82=PRESENTATION_STYLE_ASSIGNMENT((#182));
#83=EDGE_CURVE('240[2]',#183,#163,#184,.T.);
#84=PRESENTATION_STYLE_ASSIGNMENT((#185));
#85=EDGE_CURVE('240[2]',#162,#186,#187,.T.);
#86=PRESENTATION_STYLE_ASSIGNMENT((#188));
#87=PRESENTATION_STYLE_ASSIGNMENT((#189));
#88=ADVANCED_FACE('240[2]',(#190),#191,.F.);
#89=PRESENTATION_STYLE_ASSIGNMENT((#192));
#90=EDGE_CURVE('240[2]',#193,#193,#194,.T.);
#91=PRESENTATION_STYLE_ASSIGNMENT((#195));
#92=EDGE_CURVE('240[2]',#163,#162,#196,.T.);
#93=PRESENTATION_STYLE_ASSIGNMENT((#197));
#94=EDGE_CURVE('240[2]',#186,#183,#198,.T.);
#95=PRESENTATION_STYLE_ASSIGNMENT((#199));
#96=PRESENTATION_STYLE_ASSIGNMENT((#200));
#97=MANIFOLD_SOLID_BREP('240[2]',#201);
#98=PRESENTATION_STYLE_ASSIGNMENT((#202));
#99=PRESENTATION_STYLE_ASSIGNMENT((#203));
#100=ADVANCED_FACE('240[2]',(#204,#205),#206,.T.);
#101=PRESENTATION_STYLE_ASSIGNMENT((#207));
#102=PRESENTATION_STYLE_ASSIGNMENT((#208));
#103=ADVANCED_FACE('240[2]',(#209,#210),#211,.F.);
#104=PRESENTATION_STYLE_ASSIGNMENT((#212));
#105=PRESENTATION_STYLE_ASSIGNMENT((#213));
#106=ADVANCED_FACE('240[2]',(#214),#215,.T.);
#107=PRESENTATION_STYLE_ASSIGNMENT((#216));
#108=EDGE_CURVE('240[2]',#217,#217,#218,.T.);
#109=PRESENTATION_STYLE_ASSIGNMENT((#219));
#110=PRESENTATION_STYLE_ASSIGNMENT((#220));
#111=ADVANCED_FACE('240[2]',(#221),#222,.F.);
#112=PRESENTATION_STYLE_ASSIGNMENT((#223));
#113=PRESENTATION_STYLE_ASSIGNMENT((#224));
#114=ADVANCED_FACE('240[2]',(#225),#226,.F.);
#115=PRESENTATION_STYLE_ASSIGNMENT((#227));
#116=EDGE_CURVE('240[2]',#186,#183,#228,.T.);
#117=PRESENTATION_STYLE_ASSIGNMENT((#229));
#118=EDGE_CURVE('240[2]',#150,#166,#230,.T.);
#119=PRODUCT('240[2]','240[2]','PART-240[2]-DESC',(#231));
#120=PRODUCT_DEFINITION('NONE','NONE',#232,#2);
#121=AXIS2_PLACEMENT_3D('',#233,#234,#235);
#124=LENGTH_MEASURE_WITH_UNIT(LENGTH_MEASURE(1.0),#236);
#127=DIMENSIONAL_EXPONENTS(1.0,0.0,0.0,0.0,0.0,0.0,0.0);
#129=DIMENSIONAL_EXPONENTS(0.0,0.0,0.0,0.0,0.0,0.0,0.0);
#135=SURFACE_STYLE_USAGE(.BOTH.,#237);
#136=CURVE_STYLE('',#238,POSITIVE_LENGTH_MEASURE(1000.0),#239);
#137=FACE_BOUND('',#240,.T.);
#138=FACE_BOUND('',#241,.T.);
#139=FACE_BOUND('',#242,.T.);
#140=FACE_BOUND('',#243,.T.);
#141=CYLINDRICAL_SURFACE('',#244,8.0);
#142=CURVE_STYLE('',#245,POSITIVE_LENGTH_MEASURE(1000.0),#246);
#143=VERTEX_POINT('',#247);
#144=CIRCLE('',#248,8.0);
#145=CURVE_STYLE('',#249,POSITIVE_LENGTH_MEASURE(1000.0),#250);
#146=VERTEX_POINT('',#251);
#147=VERTEX_POINT('',#252);
#148=LINE('',#253,#254);
#149=CURVE_STYLE('',#255,POSITIVE_LENGTH_MEASURE(1000.0),#256);
#150=VERTEX_POINT('',#257);
#151=LINE('',#258,#259);
#152=CURVE_STYLE('',#260,POSITIVE_LENGTH_MEASURE(1000.0),#261);
#153=VERTEX_POINT('',#262);
#154=CIRCLE('',#263,5.0);
#155=CURVE_STYLE('',#264,POSITIVE_LENGTH_MEASURE(1000.0),#265);
#156=CIRCLE('',#266,8.0);
#157=SURFACE_STYLE_USAGE(.BOTH.,#267);
#158=CURVE_STYLE('',#268,POSITIVE_LENGTH_MEASURE(1000.0),#269);
#159=FACE_OUTER_BOUND('',#270,.T.);
#160=PLANE('',#271);
#161=CURVE_STYLE('',#272,POSITIVE_LENGTH_MEASURE(1000.0),#273);
#162=VERTEX_POINT('',#274);
#163=VERTEX_POINT('',#275);
#164=LINE('',#276,#277);
#165=CURVE_STYLE('',#278,POSITIVE_LENGTH_MEASURE(1000.0),#279);
#166=VERTEX_POINT('',#280);
#167=LINE('',#281,#282);
#168=SURFACE_STYLE_USAGE(.BOTH.,#283);
#169=CURVE_STYLE('',#284,POSITIVE_LENGTH_MEASURE(1000.0),#285);
#170=FACE_OUTER_BOUND('',#286,.T.);
#171=PLANE('',#287);
#172=SURFACE_STYLE_USAGE(.BOTH.,#288);
#173=CURVE_STYLE('',#289,POSITIVE_LENGTH_MEASURE(1000.0),#290);
#174=FACE_OUTER_BOUND('',#291,.T.);
#175=PLANE('',#292);
#176=SURFACE_STYLE_USAGE(.BOTH.,#293);
#177=CURVE_STYLE('',#294,POSITIVE_LENGTH_MEASURE(1000.0),#295);
#178=FACE_OUTER_BOUND('',#296,.T.);
#179=PLANE('',#297);
#180=CURVE_STYLE('',#298,POSITIVE_LENGTH_MEASURE(1000.0),#299);
#181=LINE('',#300,#301);
#182=CURVE_STYLE('',#302,POSITIVE_LENGTH_MEASURE(1000.0),#303);
#183=VERTEX_POINT('',#304);
#184=LINE('',#305,#306);
#185=CURVE_STYLE('',#307,POSITIVE_LENGTH_MEASURE(1000.0),#308);
#186=VERTEX_POINT('',#309);
#187=LINE('',#310,#311);
#188=SURFACE_STYLE_USAGE(.BOTH.,#312);
#189=CURVE_STYLE('',#313,POSITIVE_LENGTH_MEASURE(1000.0),#314);
#190=FACE_OUTER_BOUND('',#315,.T.);
#191=PLANE('',#316);
#192=CURVE_STYLE('',#317,POSITIVE_LENGTH_MEASURE(1000.0),#318);
#193=VERTEX_POINT('',#319);
#194=CIRCLE('',#320,5.0);
#195=CURVE_STYLE('',#321,POSITIVE_LENGTH_MEASURE(1000.0),#322);
#196=CIRCLE('',#323,8.0);
#197=CURVE_STYLE('',#324,POSITIVE_LENGTH_MEASURE(1000.0),#325);
#198=CIRCLE('',#326,8.0);
#199=SURFACE_STYLE_USAGE(.BOTH.,#327);
#200=CURVE_STYLE('',#328,POSITIVE_LENGTH_MEASURE(1000.0),#329);
#201=CLOSED_SHELL('',(#103,#114,#53,#79,#76,#111,#73,#88,#66,#106,#100));
#202=SURFACE_STYLE_USAGE(.BOTH.,#330);
#203=CURVE_STYLE('',#331,POSITIVE_LENGTH_MEASURE(1000.0),#332);
#204=FACE_BOUND('',#333,.T.);
#205=FACE_OUTER_BOUND('',#334,.T.);
#206=PLANE('',#335);
#207=SURFACE_STYLE_USAGE(.BOTH.,#336);
#208=CURVE_STYLE('',#337,POSITIVE_LENGTH_MEASURE(1000.0),#338);
#209=FACE_BOUND('',#339,.T.);
#210=FACE_BOUND('',#340,.T.);
#211=CYLINDRICAL_SURFACE('',#341,5.0);
#212=SURFACE_STYLE_USAGE(.BOTH.,#342);
#213=CURVE_STYLE('',#343,POSITIVE_LENGTH_MEASURE(1000.0),#344);
#214=FACE_OUTER_BOUND('',#345,.T.);
#215=PLANE('',#346);
#216=CURVE_STYLE('',#347,POSITIVE_LENGTH_MEASURE(1000.0),#348);
#217=VERTEX_POINT('',#349);
#218=CIRCLE('',#350,8.0);
#219=SURFACE_STYLE_USAGE(.BOTH.,#351);
#220=CURVE_STYLE('',#352,POSITIVE_LENGTH_MEASURE(1000.0),#353);
#221=FACE_OUTER_BOUND('',#354,.T.);
#222=PLANE('',#355);
#223=SURFACE_STYLE_USAGE(.BOTH.,#356);
#224=CURVE_STYLE('',#357,POSITIVE_LENGTH_MEASURE(1000.0),#358);
#225=FACE_OUTER_BOUND('',#359,.T.);
#226=PLANE('',#360);
#227=CURVE_STYLE('',#361,POSITIVE_LENGTH_MEASURE(1000.0),#362);
#228=LINE('',#363,#364);
#229=CURVE_STYLE('',#365,POSITIVE_LENGTH_MEASURE(1000.0),#366);
#230=CIRCLE('',#367,8.0);
#231=PRODUCT_CONTEXT('',#38,'mechanical');
#232=PRODUCT_DEFINITION_FORMATION_WITH_SPECIFIED_SOURCE(' ','NONE',#119,.NOT_KNOWN.);
#233=CARTESIAN_POINT('',(0.0,0.0,0.0));
#234=DIRECTION('',(0.0,0.0,1.0));
#235=DIRECTION('',(1.0,0.0,0.0));
#236= (NAMED_UNIT(#127)LENGTH_UNIT()SI_UNIT(.MILLI.,.METRE.));
#237=SURFACE_SIDE_STYLE('',(#369));
#238=DRAUGHTING_PRE_DEFINED_CURVE_FONT('continuous');
#239=COLOUR_RGB('',0.501960813999176,0.501960813999176,0.501960813999176);
#240=EDGE_LOOP('',(#370,#371,#372,#373));
#241=EDGE_LOOP('',(#374));
#242=EDGE_LOOP('',(#375,#376,#377,#378));
#243=EDGE_LOOP('',(#379));
#244=AXIS2_PLACEMENT_3D('',#380,#381,#382);
#245=DRAUGHTING_PRE_DEFINED_CURVE_FONT('continuous');
#246=COLOUR_RGB('',0.501960813999176,0.501960813999176,0.501960813999176);
#247=CARTESIAN_POINT('',(-7.99999999999999,5.02101953718626E-015,-25.0));
#248=AXIS2_PLACEMENT_3D('',#383,#384,#385);
#249=DRAUGHTING_PRE_DEFINED_CURVE_FONT('continuous');
#250=COLOUR_RGB('',0.501960813999176,0.501960813999176,0.501960813999176);
#251=CARTESIAN_POINT('',(-7.0,3.87298334620742,-3.0));
#252=CARTESIAN_POINT('',(-7.0,-3.87298334620741,-3.0));
#253=CARTESIAN_POINT('',(-7.0,3.87298334620742,-3.0));
#254=VECTOR('',#386,7.74596669241483);
#255=DRAUGHTING_PRE_DEFINED_CURVE_FONT('continuous');
#256=COLOUR_RGB('',0.501960813999176,0.501960813999176,0.501960813999176);
#257=CARTESIAN_POINT('',(-7.0,-3.87298334620741,-10.0));
#258=CARTESIAN_POINT('',(-7.0,-3.87298334620741,-3.0));
#259=VECTOR('',#387,7.0);
#260=DRAUGHTING_PRE_DEFINED_CURVE_FONT('continuous');
#261=COLOUR_RGB('',0.501960813999176,0.501960813999176,0.501960813999176);
#262=CARTESIAN_POINT('',(5.0,0.0,0.0));
#263=AXIS2_PLACEMENT_3D('',#388,#389,#390);
#264=DRAUGHTING_PRE_DEFINED_CURVE_FONT('continuous');
#265=COLOUR_RGB('',0.501960813999176,0.501960813999176,0.501960813999176);
#266=AXIS2_PLACEMENT_3D('',#391,#392,#393);
#267=SURFACE_SIDE_STYLE('',(#394));
#268=DRAUGHTING_PRE_DEFINED_CURVE_FONT('continuous');
#269=COLOUR_RGB('',0.501960813999176,0.501960813999176,0.501960813999176);
#270=EDGE_LOOP('',(#395,#396));
#271=AXIS2_PLACEMENT_3D('',#397,#398,#399);
#272=DRAUGHTING_PRE_DEFINED_CURVE_FONT('continuous');
#273=COLOUR_RGB('',0.501960813999176,0.501960813999176,0.501960813999176);
#274=CARTESIAN_POINT('',(7.0,-3.87298334620742,-10.0));
#275=CARTESIAN_POINT('',(7.0,3.87298334620742,-10.0));
#276=CARTESIAN_POINT('',(7.0,-3.87298334620742,-10.0));
#277=VECTOR('',#400,7.74596669241483);
#278=DRAUGHTING_PRE_DEFINED_CURVE_FONT('continuous');
#279=COLOUR_RGB('',0.501960813999176,0.501960813999176,0.501960813999176);
#280=CARTESIAN_POINT('',(-7.0,3.87298334620742,-10.0));
#281=CARTESIAN_POINT('',(-7.0,3.87298334620742,-10.0));
#282=VECTOR('',#401,7.74596669241483);
#283=SURFACE_SIDE_STYLE('',(#402));
#284=DRAUGHTING_PRE_DEFINED_CURVE_FONT('continuous');
#285=COLOUR_RGB('',0.501960813999176,0.501960813999176,0.501960813999176);
#286=EDGE_LOOP('',(#403,#404));
#287=AXIS2_PLACEMENT_3D('',#405,#406,#407);
#288=SURFACE_SIDE_STYLE('',(#408));
#289=DRAUGHTING_PRE_DEFINED_CURVE_FONT('continuous');
#290=COLOUR_RGB('',0.501960813999176,0.501960813999176,0.501960813999176);
#291=EDGE_LOOP('',(#409,#410));
#292=AXIS2_PLACEMENT_3D('',#411,#412,#413);
#293=SURFACE_SIDE_STYLE('',(#414));
#294=DRAUGHTING_PRE_DEFINED_CURVE_FONT('continuous');
#295=COLOUR_RGB('',0.501960813999176,0.501960813999176,0.501960813999176);
#296=EDGE_LOOP('',(#415,#416));
#297=AXIS2_PLACEMENT_3D('',#417,#418,#419);
#298=DRAUGHTING_PRE_DEFINED_CURVE_FONT('continuous');
#299=COLOUR_RGB('',0.501960813999176,0.501960813999176,0.501960813999176);
#300=CARTESIAN_POINT('',(-7.0,3.87298334620742,-10.0));
#301=VECTOR('',#420,7.0);
#302=DRAUGHTING_PRE_DEFINED_CURVE_FONT('continuous');
#303=COLOUR_RGB('',0.501960813999176,0.501960813999176,0.501960813999176);
#304=CARTESIAN_POINT('',(7.0,3.87298334620741,-3.0));
#305=CARTESIAN_POINT('',(7.0,3.87298334620741,-3.0));
#306=VECTOR('',#421,7.0);
#307=DRAUGHTING_PRE_DEFINED_CURVE_FONT('continuous');
#308=COLOUR_RGB('',0.501960813999176,0.501960813999176,0.501960813999176);
#309=CARTESIAN_POINT('',(7.0,-3.87298334620741,-3.0));
#310=CARTESIAN_POINT('',(7.0,-3.87298334620742,-10.0));
#311=VECTOR('',#422,7.0);
#312=SURFACE_SIDE_STYLE('',(#423));
#313=DRAUGHTING_PRE_DEFINED_CURVE_FONT('continuous');
#314=COLOUR_RGB('',0.501960813999176,0.501960813999176,0.501960813999176);
#315=EDGE_LOOP('',(#424,#425,#426,#427));
#316=AXIS2_PLACEMENT_3D('',#428,#429,#430);
#317=DRAUGHTING_PRE_DEFINED_CURVE_FONT('continuous');
#318=COLOUR_RGB('',0.501960813999176,0.501960813999176,0.501960813999176);
#319=CARTESIAN_POINT('',(5.0,0.0,-11.0));
#320=AXIS2_PLACEMENT_3D('',#431,#432,#433);
#321=DRAUGHTING_PRE_DEFINED_CURVE_FONT('continuous');
#322=COLOUR_RGB('',0.501960813999176,0.501960813999176,0.501960813999176);
#323=AXIS2_PLACEMENT_3D('',#434,#435,#436);
#324=DRAUGHTING_PRE_DEFINED_CURVE_FONT('continuous');
#325=COLOUR_RGB('',0.501960813999176,0.501960813999176,0.501960813999176);
#326=AXIS2_PLACEMENT_3D('',#437,#438,#439);
#327=SURFACE_SIDE_STYLE('',(#440));
#328=DRAUGHTING_PRE_DEFINED_CURVE_FONT('continuous');
#329=COLOUR_RGB('',0.501960813999176,0.501960813999176,0.501960813999176);
#330=SURFACE_SIDE_STYLE('',(#441));
#331=DRAUGHTING_PRE_DEFINED_CURVE_FONT('continuous');
#332=COLOUR_RGB('',0.501960813999176,0.501960813999176,0.501960813999176);
#333=EDGE_LOOP('',(#442));
#334=EDGE_LOOP('',(#443));
#335=AXIS2_PLACEMENT_3D('',#444,#445,#446);
#336=SURFACE_SIDE_STYLE('',(#447));
#337=DRAUGHTING_PRE_DEFINED_CURVE_FONT('continuous');
#338=COLOUR_RGB('',0.501960813999176,0.501960813999176,0.501960813999176);
#339=EDGE_LOOP('',(#448));
#340=EDGE_LOOP('',(#449));
#341=AXIS2_PLACEMENT_3D('',#450,#451,#452);
#342=SURFACE_SIDE_STYLE('',(#453));
#343=DRAUGHTING_PRE_DEFINED_CURVE_FONT('continuous');
#344=COLOUR_RGB('',0.501960813999176,0.501960813999176,0.501960813999176);
#345=EDGE_LOOP('',(#454));
#346=AXIS2_PLACEMENT_3D('',#455,#456,#457);
#347=DRAUGHTING_PRE_DEFINED_CURVE_FONT('continuous');
#348=COLOUR_RGB('',0.501960813999176,0.501960813999176,0.501960813999176);
#349=CARTESIAN_POINT('',(8.0,-9.79717439317883E-016,9.79717439317883E-016));
#350=AXIS2_PLACEMENT_3D('',#458,#459,#460);
#351=SURFACE_SIDE_STYLE('',(#461));
#352=DRAUGHTING_PRE_DEFINED_CURVE_FONT('continuous');
#353=COLOUR_RGB('',0.501960813999176,0.501960813999176,0.501960813999176);
#354=EDGE_LOOP('',(#462,#463,#464,#465));
#355=AXIS2_PLACEMENT_3D('',#466,#467,#468);
#356=SURFACE_SIDE_STYLE('',(#469));
#357=DRAUGHTING_PRE_DEFINED_CURVE_FONT('continuous');
#358=COLOUR_RGB('',0.501960813999176,0.501960813999176,0.501960813999176);
#359=EDGE_LOOP('',(#470));
#360=AXIS2_PLACEMENT_3D('',#471,#472,#473);
#361=DRAUGHTING_PRE_DEFINED_CURVE_FONT('continuous');
#362=COLOUR_RGB('',0.501960813999176,0.501960813999176,0.501960813999176);
#363=CARTESIAN_POINT('',(7.0,-3.87298334620741,-3.0));
#364=VECTOR('',#474,7.74596669241483);
#365=DRAUGHTING_PRE_DEFINED_CURVE_FONT('continuous');
#366=COLOUR_RGB('',0.501960813999176,0.501960813999176,0.501960813999176);
#367=AXIS2_PLACEMENT_3D('',#475,#476,#477);
#369=SURFACE_STYLE_FILL_AREA(#478);
#370=ORIENTED_EDGE('',*,*,#94,.T.);
#371=ORIENTED_EDGE('',*,*,#83,.T.);
#372=ORIENTED_EDGE('',*,*,#92,.T.);
#373=ORIENTED_EDGE('',*,*,#85,.T.);
#374=ORIENTED_EDGE('',*,*,#108,.F.);
#375=ORIENTED_EDGE('',*,*,#63,.T.);
#376=ORIENTED_EDGE('',*,*,#59,.T.);
#377=ORIENTED_EDGE('',*,*,#118,.T.);
#378=ORIENTED_EDGE('',*,*,#81,.T.);
#379=ORIENTED_EDGE('',*,*,#55,.T.);
#380=CARTESIAN_POINT('',(1.53080849893419E-015,1.53080849893419E-015,-12.5));
#381=DIRECTION('',(-1.22464679914735E-016,-1.22464679914735E-016,1.0));
#382=DIRECTION('',(1.0,-1.22464679914735E-016,1.22464679914735E-016));
#383=CARTESIAN_POINT('',(3.06161699786838E-015,3.06161699786838E-015,-25.0));
#384=DIRECTION('',(-1.22464679914735E-016,-1.22464679914735E-016,1.0));
#385=DIRECTION('',(1.0,-1.22464679914735E-016,1.22464679914735E-016));
#386=DIRECTION('',(-1.22464679914735E-016,-1.0,-1.22464679914735E-016));
#387=DIRECTION('',(1.22464679914735E-016,1.22464679914735E-016,-1.0));
#388=CARTESIAN_POINT('',(0.0,0.0,4.89858719658941E-016));
#389=DIRECTION('',(1.83667601732676E-048,1.22464679914735E-016,-1.0));
#390=DIRECTION('',(1.0,-2.24927940568992E-064,1.83667601732676E-048));
#391=CARTESIAN_POINT('',(3.67394039744206E-016,3.67394039744206E-016,-3.0));
#392=DIRECTION('',(-1.22464679914735E-016,-1.22464679914735E-016,1.0));
#393=DIRECTION('',(1.0,-1.22464679914735E-016,1.22464679914735E-016));
#394=SURFACE_STYLE_FILL_AREA(#479);
#395=ORIENTED_EDGE('',*,*,#118,.F.);
#396=ORIENTED_EDGE('',*,*,#70,.F.);
#397=CARTESIAN_POINT('',(-10.6238135784427,2.52568872850516E-015,-10.0));
#398=DIRECTION('',(1.22464679914735E-016,1.22464679914735E-016,-1.0));
#399=DIRECTION('',(0.0,-1.0,-1.22464679914735E-016));
#400=DIRECTION('',(1.22464679914735E-016,1.0,1.22464679914735E-016));
#401=DIRECTION('',(-1.22464679914735E-016,-1.0,-1.22464679914735E-016));
#402=SURFACE_STYLE_FILL_AREA(#480);
#403=ORIENTED_EDGE('',*,*,#63,.F.);
#404=ORIENTED_EDGE('',*,*,#57,.T.);
#405=CARTESIAN_POINT('',(-7.0,1.22464679914735E-015,-3.0));
#406=DIRECTION('',(-1.83667601732676E-048,-1.22464679914735E-016,1.0));
#407=DIRECTION('',(1.0,-1.49975978266185E-032,0.0));
#408=SURFACE_STYLE_FILL_AREA(#481);
#409=ORIENTED_EDGE('',*,*,#94,.F.);
#410=ORIENTED_EDGE('',*,*,#116,.T.);
#411=CARTESIAN_POINT('',(10.6238135784427,-9.336478896136E-016,-3.0));
#412=DIRECTION('',(-1.83667601732676E-048,-1.22464679914735E-016,1.0));
#413=DIRECTION('',(1.0,-1.49975978266185E-032,0.0));
#414=SURFACE_STYLE_FILL_AREA(#482);
#415=ORIENTED_EDGE('',*,*,#92,.F.);
#416=ORIENTED_EDGE('',*,*,#68,.F.);
#417=CARTESIAN_POINT('',(7.0,3.67394039744206E-016,-10.0));
#418=DIRECTION('',(1.22464679914735E-016,1.22464679914735E-016,-1.0));
#419=DIRECTION('',(0.0,-1.0,-1.22464679914735E-016));
#420=DIRECTION('',(-1.22464679914735E-016,-1.22464679914735E-016,1.0));
#421=DIRECTION('',(1.22464679914735E-016,1.22464679914735E-016,-1.0));
#422=DIRECTION('',(-1.22464679914735E-016,-1.22464679914735E-016,1.0));
#423=SURFACE_STYLE_FILL_AREA(#483);
#424=ORIENTED_EDGE('',*,*,#81,.F.);
#425=ORIENTED_EDGE('',*,*,#70,.T.);
#426=ORIENTED_EDGE('',*,*,#59,.F.);
#427=ORIENTED_EDGE('',*,*,#57,.F.);
#428=CARTESIAN_POINT('',(-7.0,2.0818995585505E-015,-10.0));
#429=DIRECTION('',(1.0,-1.22464679914735E-016,1.83667601732676E-048));
#430=DIRECTION('',(0.0,1.49975978266185E-032,1.0));
#431=CARTESIAN_POINT('',(0.0,0.0,-11.0));
#432=DIRECTION('',(0.0,0.0,1.0));
#433=DIRECTION('',(1.0,0.0,0.0));
#434=CARTESIAN_POINT('',(1.22464679914735E-015,1.22464679914735E-015,-10.0));
#435=DIRECTION('',(1.22464679914735E-016,1.22464679914735E-016,-1.0));
#436=DIRECTION('',(1.0,-1.22464679914735E-016,1.22464679914735E-016));
#437=CARTESIAN_POINT('',(3.67394039744206E-016,3.67394039744206E-016,-3.0));
#438=DIRECTION('',(-1.22464679914735E-016,-1.22464679914735E-016,1.0));
#439=DIRECTION('',(1.0,-1.22464679914735E-016,1.22464679914735E-016));
#440=SURFACE_STYLE_FILL_AREA(#484);
#441=SURFACE_STYLE_FILL_AREA(#485);
#442=ORIENTED_EDGE('',*,*,#61,.T.);
#443=ORIENTED_EDGE('',*,*,#108,.T.);
#444=CARTESIAN_POINT('',(4.0,-4.89858719658941E-016,4.89858719658941E-016));
#445=DIRECTION('',(-1.83667601732676E-048,-1.22464679914735E-016,1.0));
#446=DIRECTION('',(1.0,-1.49975978266185E-032,0.0));
#447=SURFACE_STYLE_FILL_AREA(#486);
#448=ORIENTED_EDGE('',*,*,#90,.F.);
#449=ORIENTED_EDGE('',*,*,#61,.F.);
#450=CARTESIAN_POINT('',(0.0,0.0,0.0));
#451=DIRECTION('',(0.0,0.0,-1.0));
#452=DIRECTION('',(1.0,0.0,0.0));
#453=SURFACE_STYLE_FILL_AREA(#487);
#454=ORIENTED_EDGE('',*,*,#55,.F.);
#455=CARTESIAN_POINT('',(4.0,2.57175827820944E-015,-25.0));
#456=DIRECTION('',(1.22464679914735E-016,1.22464679914735E-016,-1.0));
#457=DIRECTION('',(0.0,-1.0,-1.22464679914735E-016));
#458=CARTESIAN_POINT('',(0.0,0.0,0.0));
#459=DIRECTION('',(-1.22464679914735E-016,-1.22464679914735E-016,1.0));
#460=DIRECTION('',(1.0,-1.22464679914735E-016,1.22464679914735E-016));
#461=SURFACE_STYLE_FILL_AREA(#488);
#462=ORIENTED_EDGE('',*,*,#83,.F.);
#463=ORIENTED_EDGE('',*,*,#116,.F.);
#464=ORIENTED_EDGE('',*,*,#85,.F.);
#465=ORIENTED_EDGE('',*,*,#68,.T.);
#466=CARTESIAN_POINT('',(7.0,-4.89858719658941E-016,-3.0));
#467=DIRECTION('',(-1.0,1.22464679914735E-016,-1.22464679914735E-016));
#468=DIRECTION('',(-1.22464679914735E-016,0.0,1.0));
#469=SURFACE_STYLE_FILL_AREA(#489);
#470=ORIENTED_EDGE('',*,*,#90,.T.);
#471=CARTESIAN_POINT('',(0.885722587661414,-4.92092425238454,-11.0));
#472=DIRECTION('',(0.0,0.0,-1.0));
#473=DIRECTION('',(1.0,0.0,0.0));
#474=DIRECTION('',(1.22464679914735E-016,1.0,1.22464679914735E-016));
#475=CARTESIAN_POINT('',(1.22464679914735E-015,1.22464679914735E-015,-10.0));
#476=DIRECTION('',(1.22464679914735E-016,1.22464679914735E-016,-1.0));
#477=DIRECTION('',(1.0,-1.22464679914735E-016,1.22464679914735E-016));
#478=FILL_AREA_STYLE('',(#490));
#479=FILL_AREA_STYLE('',(#491));
#480=FILL_AREA_STYLE('',(#492));
#481=FILL_AREA_STYLE('',(#493));
#482=FILL_AREA_STYLE('',(#494));
#483=FILL_AREA_STYLE('',(#495));
#484=FILL_AREA_STYLE('',(#496));
#485=FILL_AREA_STYLE('',(#497));
#486=FILL_AREA_STYLE('',(#498));
#487=FILL_AREA_STYLE('',(#499));
#488=FILL_AREA_STYLE('',(#500));
#489=FILL_AREA_STYLE('',(#501));
#490=FILL_AREA_STYLE_COLOUR('',#502);
#491=FILL_AREA_STYLE_COLOUR('',#503);
#492=FILL_AREA_STYLE_COLOUR('',#504);
#493=FILL_AREA_STYLE_COLOUR('',#505);
#494=FILL_AREA_STYLE_COLOUR('',#506);
#495=FILL_AREA_STYLE_COLOUR('',#507);
#496=FILL_AREA_STYLE_COLOUR('',#508);
#497=FILL_AREA_STYLE_COLOUR('',#509);
#498=FILL_AREA_STYLE_COLOUR('',#510);
#499=FILL_AREA_STYLE_COLOUR('',#511);
#500=FILL_AREA_STYLE_COLOUR('',#512);
#501=FILL_AREA_STYLE_COLOUR('',#513);
#502=COLOUR_RGB('',0.501960813999176,0.501960813999176,0.501960813999176);
#503=COLOUR_RGB('',0.501960813999176,0.501960813999176,0.501960813999176);
#504=COLOUR_RGB('',0.501960813999176,0.501960813999176,0.501960813999176);
#505=COLOUR_RGB('',0.501960813999176,0.501960813999176,0.501960813999176);
#506=COLOUR_RGB('',0.501960813999176,0.501960813999176,0.501960813999176);
#507=COLOUR_RGB('',0.501960813999176,0.501960813999176,0.501960813999176);
#508=COLOUR_RGB('',0.501960813999176,0.501960813999176,0.501960813999176);
#509=COLOUR_RGB('',0.501960813999176,0.501960813999176,0.501960813999176);
#510=COLOUR_RGB('',0.501960813999176,0.501960813999176,0.501960813999176);
#511=COLOUR_RGB('',0.501960813999176,0.501960813999176,0.501960813999176);
#512=COLOUR_RGB('',0.501960813999176,0.501960813999176,0.501960813999176);
#513=COLOUR_RGB('',0.501960813999176,0.501960813999176,0.501960813999176);
ENDSEC;
END-ISO-10303-21;
