ISO-10303-21;
HEADER;
FILE_DESCRIPTION((''),'1');
FILE_NAME('//Big_tech03/bigt/Translate/11_3D_Field/02_Step_Field/66_\X2\FF71FF78FF7EFF7BFF98FF70\X0\/HSK63-CPM.stp','2013-08-26T07:51:47',(''),(''),'Spatial Interop R18','Kubotek KeyCreator V8.5.1 (14335)',' ');
FILE_SCHEMA(('CONFIG_CONTROL_DESIGN'));
ENDSEC;
DATA;
#1=DESIGN_CONTEXT('',#27,'design');
#2=APPLICATION_PROTOCOL_DEFINITION('INTERNATIONAL STANDARD','config_control_design',1994,#27);
#3=PRODUCT_CATEGORY_RELATIONSHIP('NONE','NONE',#28,#29);
#4=DATE_AND_TIME(#30,#31);
#5=DATE_TIME_ROLE('creation_date');
#6=DATE_TIME_ROLE('classification_date');
#7=PERSON_AND_ORGANIZATION_ROLE('creator');
#8=PERSON_AND_ORGANIZATION_ROLE('design_supplier');
#9=PERSON_AND_ORGANIZATION_ROLE('classification_officer');
#10=PERSON_AND_ORGANIZATION_ROLE('design_owner');
#11=APPROVAL_PERSON_ORGANIZATION(#32,#33,#34);
#12=APPROVAL_DATE_TIME(#4,#33);
#13=CC_DESIGN_APPROVAL(#33,(#35,#36,#37));
#14=CC_DESIGN_DATE_AND_TIME_ASSIGNMENT(#4,#5,(#37));
#15=CC_DESIGN_DATE_AND_TIME_ASSIGNMENT(#4,#6,(#35));
#16=CC_DESIGN_PERSON_AND_ORGANIZATION_ASSIGNMENT(#32,#10,(#38));
#17=CC_DESIGN_PERSON_AND_ORGANIZATION_ASSIGNMENT(#32,#7,(#37));
#18=CC_DESIGN_PERSON_AND_ORGANIZATION_ASSIGNMENT(#32,#7,(#36));
#19=CC_DESIGN_PERSON_AND_ORGANIZATION_ASSIGNMENT(#32,#8,(#36));
#20=CC_DESIGN_SECURITY_CLASSIFICATION(#35,(#36));
#21=CC_DESIGN_PERSON_AND_ORGANIZATION_ASSIGNMENT(#32,#9,(#35));
#22=SHAPE_DEFINITION_REPRESENTATION(#39,#40);
#23= (GEOMETRIC_REPRESENTATION_CONTEXT(3)GLOBAL_UNCERTAINTY_ASSIGNED_CONTEXT((#43))GLOBAL_UNIT_ASSIGNED_CONTEXT((#45,#46,#47))REPRESENTATION_CONTEXT('NONE','WORKSPACE'));
#27=APPLICATION_CONTEXT('CONFIGURATION CONTROLLED 3D DESIGNS OF MECHANICAL PARTS AND ASSEMBLIES');
#28=PRODUCT_CATEGORY('part','NONE');
#29=PRODUCT_RELATED_PRODUCT_CATEGORY('detail',' ',(#38));
#30=CALENDAR_DATE(2013,26,7);
#31=LOCAL_TIME(16,51,47.0,#49);
#32=PERSON_AND_ORGANIZATION(#50,#51);
#33=APPROVAL(#52,'SOLID MODEL');
#34=APPROVAL_ROLE('APPROVED');
#35=SECURITY_CLASSIFICATION('','',#53);
#36=PRODUCT_DEFINITION_FORMATION_WITH_SPECIFIED_SOURCE(' ','NONE',#38,.NOT_KNOWN.);
#37=PRODUCT_DEFINITION('NONE','NONE',#36,#1);
#38=PRODUCT('1','1','PART-1-DESC',(#54));
#39=PRODUCT_DEFINITION_SHAPE('NONE','NONE',#37);
#40=ADVANCED_BREP_SHAPE_REPRESENTATION('1',(#55,#56),#23);
#43=UNCERTAINTY_MEASURE_WITH_UNIT(LENGTH_MEASURE(1.0E-006),#45,'','');
#45= (CONVERSION_BASED_UNIT('MILLIMETRE',#59)LENGTH_UNIT()NAMED_UNIT(#62));
#46= (NAMED_UNIT(#64)PLANE_ANGLE_UNIT()SI_UNIT($,.RADIAN.));
#47= (NAMED_UNIT(#64)SOLID_ANGLE_UNIT()SI_UNIT($,.STERADIAN.));
#49=COORDINATED_UNIVERSAL_TIME_OFFSET(9,0,.AHEAD.);
#50=PERSON('','UNSPECIFIED',$,$,$,$);
#51=ORGANIZATION('UNSPECIFIED','UNSPECIFIED','UNSPECIFIED');
#52=APPROVAL_STATUS('approved');
#53=SECURITY_CLASSIFICATION_LEVEL('unclassified');
#54=MECHANICAL_CONTEXT('',#27,'mechanical');
#55=MANIFOLD_SOLID_BREP('1',#70);
#56=AXIS2_PLACEMENT_3D('',#71,#72,#73);
#59=LENGTH_MEASURE_WITH_UNIT(LENGTH_MEASURE(1.0),#74);
#62=DIMENSIONAL_EXPONENTS(1.0,0.0,0.0,0.0,0.0,0.0,0.0);
#64=DIMENSIONAL_EXPONENTS(0.0,0.0,0.0,0.0,0.0,0.0,0.0);
#70=CLOSED_SHELL('',(#75,#76,#77,#78,#79,#80,#81,#82,#83,#84,#85));
#71=CARTESIAN_POINT('',(0.0,0.0,0.0));
#72=DIRECTION('',(0.0,0.0,1.0));
#73=DIRECTION('',(1.0,0.0,0.0));
#74= (NAMED_UNIT(#62)LENGTH_UNIT()SI_UNIT(.MILLI.,.METRE.));
#75=ADVANCED_FACE('',(#87,#88),#89,.T.);
#76=ADVANCED_FACE('',(#90,#91),#92,.T.);
#77=ADVANCED_FACE('',(#93,#94),#95,.T.);
#78=ADVANCED_FACE('',(#96,#97),#98,.T.);
#79=ADVANCED_FACE('',(#99,#100),#101,.T.);
#80=ADVANCED_FACE('',(#102,#103),#104,.T.);
#81=ADVANCED_FACE('',(#105,#106),#107,.T.);
#82=ADVANCED_FACE('',(#108,#109),#110,.F.);
#83=ADVANCED_FACE('',(#111,#112),#113,.F.);
#84=ADVANCED_FACE('',(#114,#115),#116,.F.);
#85=ADVANCED_FACE('',(#117,#118),#119,.T.);
#87=FACE_BOUND('',#120,.T.);
#88=FACE_BOUND('',#121,.T.);
#89=CYLINDRICAL_SURFACE('',#122,9.00000000000009);
#90=FACE_BOUND('',#123,.T.);
#91=FACE_OUTER_BOUND('',#124,.T.);
#92=PLANE('',#125);
#93=FACE_BOUND('',#126,.T.);
#94=FACE_BOUND('',#127,.T.);
#95=CYLINDRICAL_SURFACE('',#128,5.99999999999997);
#96=FACE_BOUND('',#129,.T.);
#97=FACE_BOUND('',#130,.T.);
#98=TOROIDAL_SURFACE('',#131,5.49999999999997,0.5);
#99=FACE_BOUND('',#132,.T.);
#100=FACE_BOUND('',#133,.T.);
#101=CONICAL_SURFACE('',#134,5.6410478915253,0.260602391747365);
#102=FACE_BOUND('',#135,.T.);
#103=FACE_BOUND('',#136,.T.);
#104=TOROIDAL_SURFACE('',#137,4.8158608434579,0.499999999999968);
#105=FACE_BOUND('',#138,.T.);
#106=FACE_OUTER_BOUND('',#139,.T.);
#107=PLANE('',#140);
#108=FACE_BOUND('',#141,.T.);
#109=FACE_BOUND('',#142,.T.);
#110=CYLINDRICAL_SURFACE('',#143,3.49999999999997);
#111=FACE_BOUND('',#144,.T.);
#112=FACE_BOUND('',#145,.T.);
#113=CONICAL_SURFACE('',#146,3.75000000000001,1.0471975511965);
#114=FACE_BOUND('',#147,.T.);
#115=FACE_BOUND('',#148,.T.);
#116=CYLINDRICAL_SURFACE('',#149,4.00000000000001);
#117=FACE_OUTER_BOUND('',#150,.T.);
#118=FACE_BOUND('',#151,.T.);
#119=PLANE('',#152);
#120=EDGE_LOOP('',(#153));
#121=EDGE_LOOP('',(#154));
#122=AXIS2_PLACEMENT_3D('',#155,#156,#157);
#123=EDGE_LOOP('',(#158));
#124=EDGE_LOOP('',(#159));
#125=AXIS2_PLACEMENT_3D('',#160,#161,#162);
#126=EDGE_LOOP('',(#163));
#127=EDGE_LOOP('',(#164));
#128=AXIS2_PLACEMENT_3D('',#165,#166,#167);
#129=EDGE_LOOP('',(#168));
#130=EDGE_LOOP('',(#169));
#131=AXIS2_PLACEMENT_3D('',#170,#171,#172);
#132=EDGE_LOOP('',(#173));
#133=EDGE_LOOP('',(#174));
#134=AXIS2_PLACEMENT_3D('',#175,#176,#177);
#135=EDGE_LOOP('',(#178));
#136=EDGE_LOOP('',(#179));
#137=AXIS2_PLACEMENT_3D('',#180,#181,#182);
#138=EDGE_LOOP('',(#183));
#139=EDGE_LOOP('',(#184));
#140=AXIS2_PLACEMENT_3D('',#185,#186,#187);
#141=EDGE_LOOP('',(#188));
#142=EDGE_LOOP('',(#189));
#143=AXIS2_PLACEMENT_3D('',#190,#191,#192);
#144=EDGE_LOOP('',(#193));
#145=EDGE_LOOP('',(#194));
#146=AXIS2_PLACEMENT_3D('',#195,#196,#197);
#147=EDGE_LOOP('',(#198));
#148=EDGE_LOOP('',(#199));
#149=AXIS2_PLACEMENT_3D('',#200,#201,#202);
#150=EDGE_LOOP('',(#203));
#151=EDGE_LOOP('',(#204));
#152=AXIS2_PLACEMENT_3D('',#205,#206,#207);
#153=ORIENTED_EDGE('',*,*,#208,.F.);
#154=ORIENTED_EDGE('',*,*,#209,.T.);
#155=CARTESIAN_POINT('',(-3.52085954754864E-016,-7.04171909509728E-016,5.75));
#156=DIRECTION('',(6.12323399573677E-017,1.22464679914735E-016,-1.0));
#157=DIRECTION('',(-1.23259516440783E-032,1.0,1.22464679914735E-016));
#158=ORIENTED_EDGE('',*,*,#210,.F.);
#159=ORIENTED_EDGE('',*,*,#208,.T.);
#160=CARTESIAN_POINT('',(-7.04171909509728E-016,7.50000000000003,11.5));
#161=DIRECTION('',(-6.12323399573677E-017,-1.22464679914735E-016,1.0));
#162=DIRECTION('',(-1.23259516440783E-032,1.0,1.22464679914735E-016));
#163=ORIENTED_EDGE('',*,*,#211,.F.);
#164=ORIENTED_EDGE('',*,*,#210,.T.);
#165=CARTESIAN_POINT('',(-1.37572162134087E-015,-2.75144324268174E-015,22.4672390814838));
#166=DIRECTION('',(6.12323399573676E-017,1.22464679914735E-016,-1.0));
#167=DIRECTION('',(-1.23259516440783E-032,1.0,1.22464679914735E-016));
#168=ORIENTED_EDGE('',*,*,#212,.F.);
#169=ORIENTED_EDGE('',*,*,#211,.T.);
#170=CARTESIAN_POINT('',(-2.04727133317202E-015,-4.09454266634403E-015,33.4344781629676));
#171=DIRECTION('',(-6.12323399573677E-017,-1.22464679914735E-016,1.0));
#172=DIRECTION('',(1.0,4.82715273076902E-033,6.12323399573677E-017));
#173=ORIENTED_EDGE('',*,*,#213,.F.);
#174=ORIENTED_EDGE('',*,*,#212,.T.);
#175=CARTESIAN_POINT('',(-2.13370642932632E-015,-4.26741285865263E-015,34.8460704067799));
#176=DIRECTION('',(6.12323399573677E-017,1.22464679914735E-016,-1.0));
#177=DIRECTION('',(-1.23259516440783E-032,1.0,1.22464679914735E-016));
#178=ORIENTED_EDGE('',*,*,#214,.F.);
#179=ORIENTED_EDGE('',*,*,#213,.T.);
#180=CARTESIAN_POINT('',(-2.20436423846524E-015,-4.40872847693047E-015,36.0));
#181=DIRECTION('',(-6.12323399573677E-017,-1.22464679914735E-016,1.0));
#182=DIRECTION('',(1.0,4.82715273076902E-033,6.12323399573677E-017));
#183=ORIENTED_EDGE('',*,*,#215,.F.);
#184=ORIENTED_EDGE('',*,*,#214,.T.);
#185=CARTESIAN_POINT('',(-2.23498040844392E-015,4.15793042142209,36.5));
#186=DIRECTION('',(-6.12323399573677E-017,2.68766948293939E-014,1.0));
#187=DIRECTION('',(1.6408957619931E-030,1.0,-2.68766948293939E-014));
#188=ORIENTED_EDGE('',*,*,#216,.F.);
#189=ORIENTED_EDGE('',*,*,#215,.T.);
#190=CARTESIAN_POINT('',(-2.04481343057185E-015,-4.0896268611437E-015,33.3943375672974));
#191=DIRECTION('',(6.12323399573677E-017,1.22464679914735E-016,-1.0));
#192=DIRECTION('',(-1.23259516440783E-032,1.0,1.22464679914735E-016));
#193=ORIENTED_EDGE('',*,*,#217,.F.);
#194=ORIENTED_EDGE('',*,*,#216,.T.);
#195=CARTESIAN_POINT('',(-1.84580832571041E-015,-3.69161665142081E-015,30.1443375672974));
#196=DIRECTION('',(6.12323399573677E-017,1.22464679914735E-016,-1.0));
#197=DIRECTION('',(-1.23259516440783E-032,1.0,1.22464679914735E-016));
#198=ORIENTED_EDGE('',*,*,#218,.F.);
#199=ORIENTED_EDGE('',*,*,#217,.T.);
#200=CARTESIAN_POINT('',(-9.18485099360514E-016,-1.83697019872103E-015,15.0));
#201=DIRECTION('',(6.12323399573677E-017,1.22464679914735E-016,-1.0));
#202=DIRECTION('',(-1.23259516440783E-032,1.0,1.22464679914735E-016));
#203=ORIENTED_EDGE('',*,*,#209,.F.);
#204=ORIENTED_EDGE('',*,*,#218,.T.);
#205=CARTESIAN_POINT('',(7.40394669742217E-031,6.50000000000003,-1.26039795805542E-014));
#206=DIRECTION('',(6.12323399573677E-017,6.80246467991458E-015,-1.0));
#207=DIRECTION('',(4.21357982559285E-031,-1.0,-6.80246467991458E-015));
#208=EDGE_CURVE('',#219,#219,#220,.T.);
#209=EDGE_CURVE('',#221,#221,#222,.T.);
#210=EDGE_CURVE('',#223,#223,#224,.T.);
#211=EDGE_CURVE('',#225,#225,#226,.T.);
#212=EDGE_CURVE('',#227,#227,#228,.T.);
#213=EDGE_CURVE('',#229,#229,#230,.T.);
#214=EDGE_CURVE('',#231,#231,#232,.T.);
#215=EDGE_CURVE('',#233,#233,#234,.T.);
#216=EDGE_CURVE('',#235,#235,#236,.T.);
#217=EDGE_CURVE('',#237,#237,#238,.T.);
#218=EDGE_CURVE('',#239,#239,#240,.T.);
#219=VERTEX_POINT('',#241);
#220=CIRCLE('',#242,9.00000000000009);
#221=VERTEX_POINT('',#243);
#222=CIRCLE('',#244,9.00000000000009);
#223=VERTEX_POINT('',#245);
#224=CIRCLE('',#246,5.99999999999997);
#225=VERTEX_POINT('',#247);
#226=CIRCLE('',#248,5.99999999999997);
#227=VERTEX_POINT('',#249);
#228=CIRCLE('',#250,5.98311746979209);
#229=VERTEX_POINT('',#251);
#230=CIRCLE('',#252,5.29897831325852);
#231=VERTEX_POINT('',#253);
#232=CIRCLE('',#254,4.81586084284422);
#233=VERTEX_POINT('',#255);
#234=CIRCLE('',#256,3.49999999999997);
#235=VERTEX_POINT('',#257);
#236=CIRCLE('',#258,3.49999999999997);
#237=VERTEX_POINT('',#259);
#238=CIRCLE('',#260,4.00000000000006);
#239=VERTEX_POINT('',#261);
#240=CIRCLE('',#262,3.99999999999997);
#241=CARTESIAN_POINT('',(-7.04171909509728E-016,9.00000000000008,11.5));
#242=AXIS2_PLACEMENT_3D('',#263,#264,#265);
#243=CARTESIAN_POINT('',(-3.13000286656019E-031,9.00000000000009,4.40218211923263E-015));
#244=AXIS2_PLACEMENT_3D('',#266,#267,#268);
#245=CARTESIAN_POINT('',(-7.04171909509728E-016,5.99999999999997,11.5));
#246=AXIS2_PLACEMENT_3D('',#269,#270,#271);
#247=CARTESIAN_POINT('',(-2.04727133317202E-015,5.99999999999997,33.4344781629676));
#248=AXIS2_PLACEMENT_3D('',#272,#273,#274);
#249=CARTESIAN_POINT('',(-2.05515997668068E-015,5.98311746979209,33.5633094882796));
#250=AXIS2_PLACEMENT_3D('',#275,#276,#277);
#251=CARTESIAN_POINT('',(-2.21225288197195E-015,5.29897831325851,36.1288313252802));
#252=AXIS2_PLACEMENT_3D('',#278,#279,#280);
#253=CARTESIAN_POINT('',(-2.23498040844392E-015,4.81586084284421,36.5));
#254=AXIS2_PLACEMENT_3D('',#281,#282,#283);
#255=CARTESIAN_POINT('',(-2.23498040844392E-015,3.49999999999997,36.5));
#256=AXIS2_PLACEMENT_3D('',#284,#285,#286);
#257=CARTESIAN_POINT('',(-1.85464645269978E-015,3.49999999999997,30.2886751345949));
#258=AXIS2_PLACEMENT_3D('',#287,#288,#289);
#259=CARTESIAN_POINT('',(-1.83697019872103E-015,4.00000000000005,30.0));
#260=AXIS2_PLACEMENT_3D('',#290,#291,#292);
#261=CARTESIAN_POINT('',(1.79378962614045E-030,3.99999999999997,-2.96101412803411E-014));
#262=AXIS2_PLACEMENT_3D('',#293,#294,#295);
#263=CARTESIAN_POINT('',(-7.04171909509728E-016,-1.40834381901946E-015,11.5));
#264=DIRECTION('',(-6.12323399573677E-017,-1.22464679914735E-016,1.0));
#265=DIRECTION('',(-1.23259516440783E-032,1.0,1.22464679914735E-016));
#266=CARTESIAN_POINT('',(-2.02066721859313E-031,-4.04133443718626E-031,3.3E-015));
#267=DIRECTION('',(-6.12323399573677E-017,-1.22464679914735E-016,1.0));
#268=DIRECTION('',(-1.23259516440783E-032,1.0,1.22464679914735E-016));
#269=CARTESIAN_POINT('',(-7.04171909509728E-016,-1.40834381901946E-015,11.5));
#270=DIRECTION('',(-6.12323399573676E-017,-1.22464679914735E-016,1.0));
#271=DIRECTION('',(-1.23259516440783E-032,1.0,1.22464679914735E-016));
#272=CARTESIAN_POINT('',(-2.04727133317202E-015,-4.09454266634403E-015,33.4344781629676));
#273=DIRECTION('',(-6.12323399573676E-017,-1.22464679914735E-016,1.0));
#274=DIRECTION('',(-1.23259516440783E-032,1.0,1.22464679914735E-016));
#275=CARTESIAN_POINT('',(-2.05515997668068E-015,-4.11031995336136E-015,33.5633094882796));
#276=DIRECTION('',(-6.12323399573677E-017,-1.22464679914735E-016,1.0));
#277=DIRECTION('',(-1.23259516440783E-032,1.0,1.22464679914735E-016));
#278=CARTESIAN_POINT('',(-2.21225288197195E-015,-4.4245057639439E-015,36.1288313252802));
#279=DIRECTION('',(-6.12323399573677E-017,-1.22464679914735E-016,1.0));
#280=DIRECTION('',(-1.23259516440783E-032,1.0,1.22464679914735E-016));
#281=CARTESIAN_POINT('',(-2.23498040844392E-015,-4.46996081688783E-015,36.5));
#282=DIRECTION('',(-6.12323399573677E-017,-1.22464679914735E-016,1.0));
#283=DIRECTION('',(-1.23259516440783E-032,1.0,1.22464679914735E-016));
#284=CARTESIAN_POINT('',(-2.23498040844392E-015,-4.46996081688784E-015,36.5));
#285=DIRECTION('',(-6.12323399573677E-017,-1.22464679914735E-016,1.0));
#286=DIRECTION('',(-1.23259516440783E-032,1.0,1.22464679914735E-016));
#287=CARTESIAN_POINT('',(-1.85464645269978E-015,-3.70929290539956E-015,30.2886751345949));
#288=DIRECTION('',(-6.12323399573677E-017,-1.22464679914735E-016,1.0));
#289=DIRECTION('',(-1.23259516440783E-032,1.0,1.22464679914735E-016));
#290=CARTESIAN_POINT('',(-1.83697019872103E-015,-3.67394039744206E-015,30.0));
#291=DIRECTION('',(-6.12323399573676E-017,-1.22464679914735E-016,1.0));
#292=DIRECTION('',(-1.23259516440783E-032,1.0,1.22464679914735E-016));
#293=CARTESIAN_POINT('',(1.84309343271677E-030,3.68618686543353E-030,-3.01E-014));
#294=DIRECTION('',(-6.12323399573677E-017,-1.22464679914735E-016,1.0));
#295=DIRECTION('',(-1.23259516440783E-032,1.0,1.22464679914735E-016));
ENDSEC;
END-ISO-10303-21;
