ISO-10303-21;
HEADER;
FILE_DESCRIPTION((''),'1');
FILE_NAME('W:/Translate/11_3D_Field/02_Step_Field/HSK-T63-BSL16-100.stp','2012-09-21T00:16:03',(''),(''),'Spatial Interop R18','Kubotek KeyCreator V8.5.1 (14335)',' ');
FILE_SCHEMA(('CONFIG_CONTROL_DESIGN'));
ENDSEC;
DATA;
#1=DESIGN_CONTEXT('',#27,'design');
#2=APPLICATION_PROTOCOL_DEFINITION('INTERNATIONAL STANDARD','config_control_design',1994,#27);
#3=PRODUCT_CATEGORY_RELATIONSHIP('NONE','NONE',#28,#29);
#4=DATE_AND_TIME(#30,#31);
#5=DATE_TIME_ROLE('creation_date');
#6=DATE_TIME_ROLE('classification_date');
#7=PERSON_AND_ORGANIZATION_ROLE('creator');
#8=PERSON_AND_ORGANIZATION_ROLE('design_supplier');
#9=PERSON_AND_ORGANIZATION_ROLE('classification_officer');
#10=PERSON_AND_ORGANIZATION_ROLE('design_owner');
#11=APPROVAL_PERSON_ORGANIZATION(#32,#33,#34);
#12=APPROVAL_DATE_TIME(#4,#33);
#13=CC_DESIGN_APPROVAL(#33,(#35,#36,#37));
#14=CC_DESIGN_DATE_AND_TIME_ASSIGNMENT(#4,#5,(#37));
#15=CC_DESIGN_DATE_AND_TIME_ASSIGNMENT(#4,#6,(#35));
#16=CC_DESIGN_PERSON_AND_ORGANIZATION_ASSIGNMENT(#32,#10,(#38));
#17=CC_DESIGN_PERSON_AND_ORGANIZATION_ASSIGNMENT(#32,#7,(#37));
#18=CC_DESIGN_PERSON_AND_ORGANIZATION_ASSIGNMENT(#32,#7,(#36));
#19=CC_DESIGN_PERSON_AND_ORGANIZATION_ASSIGNMENT(#32,#8,(#36));
#20=CC_DESIGN_SECURITY_CLASSIFICATION(#35,(#36));
#21=CC_DESIGN_PERSON_AND_ORGANIZATION_ASSIGNMENT(#32,#9,(#35));
#22=SHAPE_DEFINITION_REPRESENTATION(#39,#40);
#23= (GEOMETRIC_REPRESENTATION_CONTEXT(3)GLOBAL_UNCERTAINTY_ASSIGNED_CONTEXT((#43))GLOBAL_UNIT_ASSIGNED_CONTEXT((#45,#46,#47))REPRESENTATION_CONTEXT('NONE','WORKSPACE'));
#27=APPLICATION_CONTEXT('CONFIGURATION CONTROLLED 3D DESIGNS OF MECHANICAL PARTS AND ASSEMBLIES');
#28=PRODUCT_CATEGORY('part','NONE');
#29=PRODUCT_RELATED_PRODUCT_CATEGORY('detail',' ',(#38));
#30=CALENDAR_DATE(2012,21,8);
#31=LOCAL_TIME(9,16,3.0,#49);
#32=PERSON_AND_ORGANIZATION(#50,#51);
#33=APPROVAL(#52,'SOLID MODEL');
#34=APPROVAL_ROLE('APPROVED');
#35=SECURITY_CLASSIFICATION('','',#53);
#36=PRODUCT_DEFINITION_FORMATION_WITH_SPECIFIED_SOURCE(' ','NONE',#38,.NOT_KNOWN.);
#37=PRODUCT_DEFINITION('NONE','NONE',#36,#1);
#38=PRODUCT('1','1','PART-1-DESC',(#54));
#39=PRODUCT_DEFINITION_SHAPE('NONE','NONE',#37);
#40=ADVANCED_BREP_SHAPE_REPRESENTATION('1',(#55,#56),#23);
#43=UNCERTAINTY_MEASURE_WITH_UNIT(LENGTH_MEASURE(1.0E-006),#45,'','');
#45= (CONVERSION_BASED_UNIT('MILLIMETRE',#59)LENGTH_UNIT()NAMED_UNIT(#62));
#46= (NAMED_UNIT(#64)PLANE_ANGLE_UNIT()SI_UNIT($,.RADIAN.));
#47= (NAMED_UNIT(#64)SOLID_ANGLE_UNIT()SI_UNIT($,.STERADIAN.));
#49=COORDINATED_UNIVERSAL_TIME_OFFSET(9,0,.AHEAD.);
#50=PERSON('','UNSPECIFIED',$,$,$,$);
#51=ORGANIZATION('UNSPECIFIED','UNSPECIFIED','UNSPECIFIED');
#52=APPROVAL_STATUS('approved');
#53=SECURITY_CLASSIFICATION_LEVEL('unclassified');
#54=MECHANICAL_CONTEXT('',#27,'mechanical');
#55=MANIFOLD_SOLID_BREP('1',#70);
#56=AXIS2_PLACEMENT_3D('',#71,#72,#73);
#59=LENGTH_MEASURE_WITH_UNIT(LENGTH_MEASURE(1.0),#74);
#62=DIMENSIONAL_EXPONENTS(1.0,0.0,0.0,0.0,0.0,0.0,0.0);
#64=DIMENSIONAL_EXPONENTS(0.0,0.0,0.0,0.0,0.0,0.0,0.0);
#70=CLOSED_SHELL('',(#75,#76,#77,#78,#79,#80,#81,#82,#83,#84,#85,#86,#87,#88,#89,#90));
#71=CARTESIAN_POINT('',(0.0,0.0,0.0));
#72=DIRECTION('',(0.0,0.0,1.0));
#73=DIRECTION('',(1.0,0.0,0.0));
#74= (NAMED_UNIT(#62)LENGTH_UNIT()SI_UNIT(.MILLI.,.METRE.));
#75=ADVANCED_FACE('',(#92),#93,.T.);
#76=ADVANCED_FACE('',(#94,#95),#96,.T.);
#77=ADVANCED_FACE('',(#97,#98),#99,.T.);
#78=ADVANCED_FACE('',(#100,#101),#102,.T.);
#79=ADVANCED_FACE('',(#103,#104),#105,.T.);
#80=ADVANCED_FACE('',(#106,#107),#108,.T.);
#81=ADVANCED_FACE('',(#109,#110),#111,.T.);
#82=ADVANCED_FACE('',(#112,#113),#114,.T.);
#83=ADVANCED_FACE('',(#115,#116),#117,.T.);
#84=ADVANCED_FACE('',(#118,#119),#120,.T.);
#85=ADVANCED_FACE('',(#121,#122),#123,.T.);
#86=ADVANCED_FACE('',(#124,#125),#126,.T.);
#87=ADVANCED_FACE('',(#127,#128),#129,.T.);
#88=ADVANCED_FACE('',(#130,#131),#132,.T.);
#89=ADVANCED_FACE('',(#133,#134),#135,.T.);
#90=ADVANCED_FACE('',(#136),#137,.T.);
#92=FACE_OUTER_BOUND('',#138,.T.);
#93=PLANE('',#139);
#94=FACE_BOUND('',#140,.T.);
#95=FACE_BOUND('',#141,.T.);
#96=CONICAL_SURFACE('',#142,22.7665465885447,0.0499583958256321);
#97=FACE_OUTER_BOUND('',#143,.T.);
#98=FACE_BOUND('',#144,.T.);
#99=PLANE('',#145);
#100=FACE_BOUND('',#146,.T.);
#101=FACE_BOUND('',#147,.T.);
#102=CYLINDRICAL_SURFACE('',#148,30.75154659);
#103=FACE_BOUND('',#149,.T.);
#104=FACE_BOUND('',#150,.T.);
#105=CONICAL_SURFACE('',#151,29.45034422,1.04719755326565);
#106=FACE_BOUND('',#152,.T.);
#107=FACE_OUTER_BOUND('',#153,.T.);
#108=PLANE('',#154);
#109=FACE_BOUND('',#155,.T.);
#110=FACE_BOUND('',#156,.T.);
#111=CYLINDRICAL_SURFACE('',#157,26.75154659);
#112=FACE_OUTER_BOUND('',#158,.T.);
#113=FACE_BOUND('',#159,.T.);
#114=PLANE('',#160);
#115=FACE_BOUND('',#161,.T.);
#116=FACE_BOUND('',#162,.T.);
#117=CONICAL_SURFACE('',#163,29.45034422,1.04719755326565);
#118=FACE_BOUND('',#164,.T.);
#119=FACE_BOUND('',#165,.T.);
#120=CYLINDRICAL_SURFACE('',#166,30.75154659);
#121=FACE_BOUND('',#167,.T.);
#122=FACE_OUTER_BOUND('',#168,.T.);
#123=PLANE('',#169);
#124=FACE_BOUND('',#170,.T.);
#125=FACE_BOUND('',#171,.T.);
#126=CONICAL_SURFACE('',#172,25.0793910720476,0.858441906855803);
#127=FACE_BOUND('',#173,.T.);
#128=FACE_BOUND('',#174,.T.);
#129=CONICAL_SURFACE('',#175,22.2486068012227,0.463647609445526);
#130=FACE_BOUND('',#176,.T.);
#131=FACE_BOUND('',#177,.T.);
#132=CYLINDRICAL_SURFACE('',#178,20.0);
#133=FACE_BOUND('',#179,.T.);
#134=FACE_BOUND('',#180,.T.);
#135=CONICAL_SURFACE('',#181,15.0000000010874,1.30899693867297);
#136=FACE_OUTER_BOUND('',#182,.T.);
#137=PLANE('',#183);
#138=EDGE_LOOP('',(#184));
#139=AXIS2_PLACEMENT_3D('',#185,#186,#187);
#140=EDGE_LOOP('',(#188));
#141=EDGE_LOOP('',(#189));
#142=AXIS2_PLACEMENT_3D('',#190,#191,#192);
#143=EDGE_LOOP('',(#193));
#144=EDGE_LOOP('',(#194));
#145=AXIS2_PLACEMENT_3D('',#195,#196,#197);
#146=EDGE_LOOP('',(#198));
#147=EDGE_LOOP('',(#199));
#148=AXIS2_PLACEMENT_3D('',#200,#201,#202);
#149=EDGE_LOOP('',(#203));
#150=EDGE_LOOP('',(#204));
#151=AXIS2_PLACEMENT_3D('',#205,#206,#207);
#152=EDGE_LOOP('',(#208));
#153=EDGE_LOOP('',(#209));
#154=AXIS2_PLACEMENT_3D('',#210,#211,#212);
#155=EDGE_LOOP('',(#213));
#156=EDGE_LOOP('',(#214));
#157=AXIS2_PLACEMENT_3D('',#215,#216,#217);
#158=EDGE_LOOP('',(#218));
#159=EDGE_LOOP('',(#219));
#160=AXIS2_PLACEMENT_3D('',#220,#221,#222);
#161=EDGE_LOOP('',(#223));
#162=EDGE_LOOP('',(#224));
#163=AXIS2_PLACEMENT_3D('',#225,#226,#227);
#164=EDGE_LOOP('',(#228));
#165=EDGE_LOOP('',(#229));
#166=AXIS2_PLACEMENT_3D('',#230,#231,#232);
#167=EDGE_LOOP('',(#233));
#168=EDGE_LOOP('',(#234));
#169=AXIS2_PLACEMENT_3D('',#235,#236,#237);
#170=EDGE_LOOP('',(#238));
#171=EDGE_LOOP('',(#239));
#172=AXIS2_PLACEMENT_3D('',#240,#241,#242);
#173=EDGE_LOOP('',(#243));
#174=EDGE_LOOP('',(#244));
#175=AXIS2_PLACEMENT_3D('',#245,#246,#247);
#176=EDGE_LOOP('',(#248));
#177=EDGE_LOOP('',(#249));
#178=AXIS2_PLACEMENT_3D('',#250,#251,#252);
#179=EDGE_LOOP('',(#253));
#180=EDGE_LOOP('',(#254));
#181=AXIS2_PLACEMENT_3D('',#255,#256,#257);
#182=EDGE_LOOP('',(#258));
#183=AXIS2_PLACEMENT_3D('',#259,#260,#261);
#184=ORIENTED_EDGE('',*,*,#262,.F.);
#185=CARTESIAN_POINT('',(-1.95943487863577E-015,10.9832732934407,32.0));
#186=DIRECTION('',(-6.12323399573677E-017,-1.22464679914735E-016,1.0));
#187=DIRECTION('',(1.23259516440783E-032,-1.0,-1.22464679914735E-016));
#188=ORIENTED_EDGE('',*,*,#263,.F.);
#189=ORIENTED_EDGE('',*,*,#262,.T.);
#190=CARTESIAN_POINT('',(-9.79717439317883E-016,-1.95943487863576E-015,16.0));
#191=DIRECTION('',(6.12323399573677E-017,1.22464679914735E-016,-1.0));
#192=DIRECTION('',(-1.23259516440783E-032,1.0,1.22464679914735E-016));
#193=ORIENTED_EDGE('',*,*,#264,.F.);
#194=ORIENTED_EDGE('',*,*,#263,.T.);
#195=CARTESIAN_POINT('',(-3.34761094968891E-031,27.1590465901039,3.32602394744646E-015));
#196=DIRECTION('',(-6.12323399573677E-017,-1.22464679914735E-016,1.0));
#197=DIRECTION('',(1.23259516440783E-032,-1.0,-1.22464679914735E-016));
#198=ORIENTED_EDGE('',*,*,#265,.F.);
#199=ORIENTED_EDGE('',*,*,#264,.T.);
#200=CARTESIAN_POINT('',(4.47684973986342E-016,8.95369947972685E-016,-7.311250465));
#201=DIRECTION('',(-6.12323399573677E-017,-1.22464679914735E-016,1.0));
#202=DIRECTION('',(-1.23259516440783E-032,1.0,1.22464679914735E-016));
#203=ORIENTED_EDGE('',*,*,#266,.F.);
#204=ORIENTED_EDGE('',*,*,#265,.T.);
#205=CARTESIAN_POINT('',(9.41370714892619E-016,1.88274142978524E-015,-15.373750465));
#206=DIRECTION('',(-6.12323399573677E-017,-1.22464679914735E-016,1.0));
#207=DIRECTION('',(-1.23259516440783E-032,1.0,1.22464679914735E-016));
#208=ORIENTED_EDGE('',*,*,#267,.F.);
#209=ORIENTED_EDGE('',*,*,#266,.T.);
#210=CARTESIAN_POINT('',(9.87371481812553E-016,27.45034422,-16.125));
#211=DIRECTION('',(6.12323399573677E-017,1.22464679914735E-016,-1.0));
#212=DIRECTION('',(-1.23259516440783E-032,1.0,1.22464679914735E-016));
#213=ORIENTED_EDGE('',*,*,#268,.F.);
#214=ORIENTED_EDGE('',*,*,#267,.T.);
#215=CARTESIAN_POINT('',(1.10218211923262E-015,2.20436423846524E-015,-18.0));
#216=DIRECTION('',(-6.12323399573677E-017,-1.22464679914735E-016,1.0));
#217=DIRECTION('',(-1.23259516440783E-032,1.0,1.22464679914735E-016));
#218=ORIENTED_EDGE('',*,*,#269,.F.);
#219=ORIENTED_EDGE('',*,*,#268,.T.);
#220=CARTESIAN_POINT('',(1.21699275665268E-015,27.45034422,-19.875));
#221=DIRECTION('',(-6.12323399573677E-017,-1.22464679914735E-016,1.0));
#222=DIRECTION('',(1.23259516440783E-032,-1.0,-1.22464679914735E-016));
#223=ORIENTED_EDGE('',*,*,#270,.F.);
#224=ORIENTED_EDGE('',*,*,#269,.T.);
#225=CARTESIAN_POINT('',(1.26299352357262E-015,2.52598704714523E-015,-20.626249535));
#226=DIRECTION('',(6.12323399573677E-017,1.22464679914735E-016,-1.0));
#227=DIRECTION('',(-1.23259516440783E-032,1.0,1.22464679914735E-016));
#228=ORIENTED_EDGE('',*,*,#271,.F.);
#229=ORIENTED_EDGE('',*,*,#270,.T.);
#230=CARTESIAN_POINT('',(1.45051756469206E-015,2.90103512938411E-015,-23.688749535));
#231=DIRECTION('',(-6.12323399573677E-017,-1.22464679914735E-016,1.0));
#232=DIRECTION('',(-1.23259516440783E-032,1.0,1.22464679914735E-016));
#233=ORIENTED_EDGE('',*,*,#272,.F.);
#234=ORIENTED_EDGE('',*,*,#271,.T.);
#235=CARTESIAN_POINT('',(1.59204083889156E-015,28.2065575658249,-26.0));
#236=DIRECTION('',(6.12323399573677E-017,1.22464679914735E-016,-1.0));
#237=DIRECTION('',(-1.23259516440783E-032,1.0,1.22464679914735E-016));
#238=ORIENTED_EDGE('',*,*,#273,.F.);
#239=ORIENTED_EDGE('',*,*,#272,.T.);
#240=CARTESIAN_POINT('',(1.62282762681872E-015,3.24565525363745E-015,-26.5027864025546));
#241=DIRECTION('',(-6.12323399573676E-017,-1.22464679914735E-016,1.0));
#242=DIRECTION('',(-1.23259516440783E-032,1.0,1.22464679914735E-016));
#243=ORIENTED_EDGE('',*,*,#274,.F.);
#244=ORIENTED_EDGE('',*,*,#273,.T.);
#245=CARTESIAN_POINT('',(1.92898932660556E-015,3.85797865321113E-015,-31.5027864025546));
#246=DIRECTION('',(-6.12323399573677E-017,-1.22464679914735E-016,1.0));
#247=DIRECTION('',(-1.23259516440783E-032,1.0,1.22464679914735E-016));
#248=ORIENTED_EDGE('',*,*,#275,.F.);
#249=ORIENTED_EDGE('',*,*,#274,.T.);
#250=CARTESIAN_POINT('',(4.0817633368017E-015,8.1635266736034E-015,-66.660254036406));
#251=DIRECTION('',(-6.12323399573677E-017,-1.22464679914735E-016,1.0));
#252=DIRECTION('',(-1.23259516440783E-032,1.0,1.22464679914735E-016));
#253=ORIENTED_EDGE('',*,*,#276,.F.);
#254=ORIENTED_EDGE('',*,*,#275,.T.);
#255=CARTESIAN_POINT('',(6.04119821543747E-015,1.20823964308749E-014,-98.660254036406));
#256=DIRECTION('',(-6.12323399573676E-017,-1.22464679914735E-016,1.0));
#257=DIRECTION('',(-1.23259516440783E-032,1.0,1.22464679914735E-016));
#258=ORIENTED_EDGE('',*,*,#276,.T.);
#259=CARTESIAN_POINT('',(6.12323399573677E-015,5.00000000108743,-100.0));
#260=DIRECTION('',(6.12323399573677E-017,1.22464679914735E-016,-1.0));
#261=DIRECTION('',(-1.23259516440783E-032,1.0,1.22464679914735E-016));
#262=EDGE_CURVE('',#277,#277,#278,.T.);
#263=EDGE_CURVE('',#279,#279,#280,.T.);
#264=EDGE_CURVE('',#281,#281,#282,.T.);
#265=EDGE_CURVE('',#283,#283,#284,.T.);
#266=EDGE_CURVE('',#285,#285,#286,.T.);
#267=EDGE_CURVE('',#287,#287,#288,.T.);
#268=EDGE_CURVE('',#289,#289,#290,.T.);
#269=EDGE_CURVE('',#291,#291,#292,.T.);
#270=EDGE_CURVE('',#293,#293,#294,.T.);
#271=EDGE_CURVE('',#295,#295,#296,.T.);
#272=EDGE_CURVE('',#297,#297,#298,.T.);
#273=EDGE_CURVE('',#299,#299,#300,.T.);
#274=EDGE_CURVE('',#301,#301,#302,.T.);
#275=EDGE_CURVE('',#303,#303,#304,.T.);
#276=EDGE_CURVE('',#305,#305,#306,.T.);
#277=VERTEX_POINT('',#307);
#278=CIRCLE('',#308,21.9665465868815);
#279=VERTEX_POINT('',#309);
#280=CIRCLE('',#310,23.5665465902079);
#281=VERTEX_POINT('',#311);
#282=CIRCLE('',#312,30.75154659);
#283=VERTEX_POINT('',#313);
#284=CIRCLE('',#314,30.75154659);
#285=VERTEX_POINT('',#315);
#286=CIRCLE('',#316,28.14914185);
#287=VERTEX_POINT('',#317);
#288=CIRCLE('',#318,26.75154659);
#289=VERTEX_POINT('',#319);
#290=CIRCLE('',#320,26.75154659);
#291=VERTEX_POINT('',#321);
#292=CIRCLE('',#322,28.14914185);
#293=VERTEX_POINT('',#323);
#294=CIRCLE('',#324,30.75154659);
#295=VERTEX_POINT('',#325);
#296=CIRCLE('',#326,30.75154659);
#297=VERTEX_POINT('',#327);
#298=CIRCLE('',#328,25.6615685416497);
#299=VERTEX_POINT('',#329);
#300=CIRCLE('',#330,24.4972136024454);
#301=VERTEX_POINT('',#331);
#302=CIRCLE('',#332,20.0);
#303=VERTEX_POINT('',#333);
#304=CIRCLE('',#334,20.0);
#305=VERTEX_POINT('',#335);
#306=CIRCLE('',#336,10.0000000021748);
#307=CARTESIAN_POINT('',(-1.95943487863577E-015,21.9665465868815,32.0));
#308=AXIS2_PLACEMENT_3D('',#337,#338,#339);
#309=CARTESIAN_POINT('',(-2.90480113688821E-031,23.5665465902079,2.88606958486551E-015));
#310=AXIS2_PLACEMENT_3D('',#340,#341,#342);
#311=CARTESIAN_POINT('',(-3.79042076248961E-031,30.75154659,3.76597831002742E-015));
#312=AXIS2_PLACEMENT_3D('',#343,#344,#345);
#313=CARTESIAN_POINT('',(8.95369947972684E-016,30.75154659,-14.62250093));
#314=AXIS2_PLACEMENT_3D('',#346,#347,#348);
#315=CARTESIAN_POINT('',(9.87371481812553E-016,28.14914185,-16.125));
#316=AXIS2_PLACEMENT_3D('',#349,#350,#351);
#317=CARTESIAN_POINT('',(9.87371481812553E-016,26.75154659,-16.125));
#318=AXIS2_PLACEMENT_3D('',#352,#353,#354);
#319=CARTESIAN_POINT('',(1.21699275665268E-015,26.75154659,-19.875));
#320=AXIS2_PLACEMENT_3D('',#355,#356,#357);
#321=CARTESIAN_POINT('',(1.21699275665268E-015,28.14914185,-19.875));
#322=AXIS2_PLACEMENT_3D('',#358,#359,#360);
#323=CARTESIAN_POINT('',(1.30899429049255E-015,30.75154659,-21.37749907));
#324=AXIS2_PLACEMENT_3D('',#361,#362,#363);
#325=CARTESIAN_POINT('',(1.59204083889156E-015,30.75154659,-26.0));
#326=AXIS2_PLACEMENT_3D('',#364,#365,#366);
#327=CARTESIAN_POINT('',(1.59204083889156E-015,25.6615685416497,-26.0));
#328=AXIS2_PLACEMENT_3D('',#367,#368,#369);
#329=CARTESIAN_POINT('',(1.65361441474589E-015,24.4972136024454,-27.0055728051092));
#330=AXIS2_PLACEMENT_3D('',#370,#371,#372);
#331=CARTESIAN_POINT('',(2.20436423846524E-015,20.0,-36.0));
#332=AXIS2_PLACEMENT_3D('',#373,#374,#375);
#333=CARTESIAN_POINT('',(5.95916243513817E-015,20.0,-97.320508072812));
#334=AXIS2_PLACEMENT_3D('',#376,#377,#378);
#335=CARTESIAN_POINT('',(6.12323399573677E-015,10.0000000021748,-100.0));
#336=AXIS2_PLACEMENT_3D('',#379,#380,#381);
#337=CARTESIAN_POINT('',(-1.95943487863577E-015,-3.91886975727153E-015,32.0));
#338=DIRECTION('',(6.12323399573677E-017,1.22464679914735E-016,-1.0));
#339=DIRECTION('',(-1.23259516440783E-032,1.0,1.22464679914735E-016));
#340=CARTESIAN_POINT('',(0.0,0.0,0.0));
#341=DIRECTION('',(6.12323399573677E-017,1.22464679914735E-016,-1.0));
#342=DIRECTION('',(-1.23259516440783E-032,1.0,1.22464679914735E-016));
#343=CARTESIAN_POINT('',(0.0,0.0,0.0));
#344=DIRECTION('',(6.12323399573677E-017,1.22464679914735E-016,-1.0));
#345=DIRECTION('',(-1.23259516440783E-032,1.0,1.22464679914735E-016));
#346=CARTESIAN_POINT('',(8.95369947972685E-016,1.79073989594537E-015,-14.62250093));
#347=DIRECTION('',(6.12323399573677E-017,1.22464679914735E-016,-1.0));
#348=DIRECTION('',(-1.23259516440783E-032,1.0,1.22464679914735E-016));
#349=CARTESIAN_POINT('',(9.87371481812554E-016,1.97474296362511E-015,-16.125));
#350=DIRECTION('',(6.12323399573677E-017,1.22464679914735E-016,-1.0));
#351=DIRECTION('',(-1.23259516440783E-032,1.0,1.22464679914735E-016));
#352=CARTESIAN_POINT('',(9.87371481812554E-016,1.97474296362511E-015,-16.125));
#353=DIRECTION('',(6.12323399573677E-017,1.22464679914735E-016,-1.0));
#354=DIRECTION('',(-1.23259516440783E-032,1.0,1.22464679914735E-016));
#355=CARTESIAN_POINT('',(1.21699275665268E-015,2.43398551330536E-015,-19.875));
#356=DIRECTION('',(6.12323399573677E-017,1.22464679914735E-016,-1.0));
#357=DIRECTION('',(-1.23259516440783E-032,1.0,1.22464679914735E-016));
#358=CARTESIAN_POINT('',(1.21699275665268E-015,2.43398551330536E-015,-19.875));
#359=DIRECTION('',(6.12323399573677E-017,1.22464679914735E-016,-1.0));
#360=DIRECTION('',(-1.23259516440783E-032,1.0,1.22464679914735E-016));
#361=CARTESIAN_POINT('',(1.30899429049255E-015,2.6179885809851E-015,-21.37749907));
#362=DIRECTION('',(6.12323399573677E-017,1.22464679914735E-016,-1.0));
#363=DIRECTION('',(-1.23259516440783E-032,1.0,1.22464679914735E-016));
#364=CARTESIAN_POINT('',(1.59204083889156E-015,3.18408167778312E-015,-26.0));
#365=DIRECTION('',(6.12323399573677E-017,1.22464679914735E-016,-1.0));
#366=DIRECTION('',(-1.23259516440783E-032,1.0,1.22464679914735E-016));
#367=CARTESIAN_POINT('',(1.59204083889156E-015,3.18408167778312E-015,-26.0));
#368=DIRECTION('',(6.12323399573677E-017,1.22464679914735E-016,-1.0));
#369=DIRECTION('',(-1.23259516440783E-032,1.0,1.22464679914735E-016));
#370=CARTESIAN_POINT('',(1.65361441474589E-015,3.30722882949178E-015,-27.0055728051092));
#371=DIRECTION('',(6.12323399573676E-017,1.22464679914735E-016,-1.0));
#372=DIRECTION('',(-1.23259516440783E-032,1.0,1.22464679914735E-016));
#373=CARTESIAN_POINT('',(2.20436423846524E-015,4.40872847693047E-015,-36.0));
#374=DIRECTION('',(6.12323399573677E-017,1.22464679914735E-016,-1.0));
#375=DIRECTION('',(-1.23259516440783E-032,1.0,1.22464679914735E-016));
#376=CARTESIAN_POINT('',(5.95916243513817E-015,1.19183248702763E-014,-97.320508072812));
#377=DIRECTION('',(6.12323399573677E-017,1.22464679914735E-016,-1.0));
#378=DIRECTION('',(-1.23259516440783E-032,1.0,1.22464679914735E-016));
#379=CARTESIAN_POINT('',(6.12323399573677E-015,1.22464679914735E-014,-100.0));
#380=DIRECTION('',(6.12323399573677E-017,1.22464679914735E-016,-1.0));
#381=DIRECTION('',(-1.23259516440783E-032,1.0,1.22464679914735E-016));
ENDSEC;
END-ISO-10303-21;
