ISO-10303-21;
HEADER;
FILE_DESCRIPTION((''),'1');
FILE_NAME('//Big_tech03/bigt/Translate/21_\X2\8F2A90ED7DDA\X0\-DXF/01_\X2\30E130AC30C130E330C330AF30B730EA30FC30BA\X0\/02_\X2\FF92FF76FF9E30CB30E530FC30D930D330FC30C130E330C330AF\X0\ MEGA-N/HSK/F 63/HSK-F63-MEGA6N-105.stp','2012-05-01T02:22:33',(''),(''),'Spatial Interop R18','Kubotek KeyCreator V8.5.1 (14335)',' ');
FILE_SCHEMA(('CONFIG_CONTROL_DESIGN'));
ENDSEC;
DATA;
#1=DESIGN_CONTEXT('',#27,'design');
#2=APPLICATION_PROTOCOL_DEFINITION('INTERNATIONAL STANDARD','config_control_design',1994,#27);
#3=PRODUCT_CATEGORY_RELATIONSHIP('NONE','NONE',#28,#29);
#4=DATE_AND_TIME(#30,#31);
#5=DATE_TIME_ROLE('creation_date');
#6=DATE_TIME_ROLE('classification_date');
#7=PERSON_AND_ORGANIZATION_ROLE('creator');
#8=PERSON_AND_ORGANIZATION_ROLE('design_supplier');
#9=PERSON_AND_ORGANIZATION_ROLE('classification_officer');
#10=PERSON_AND_ORGANIZATION_ROLE('design_owner');
#11=APPROVAL_PERSON_ORGANIZATION(#32,#33,#34);
#12=APPROVAL_DATE_TIME(#4,#33);
#13=CC_DESIGN_APPROVAL(#33,(#35,#36,#37));
#14=CC_DESIGN_DATE_AND_TIME_ASSIGNMENT(#4,#5,(#37));
#15=CC_DESIGN_DATE_AND_TIME_ASSIGNMENT(#4,#6,(#35));
#16=CC_DESIGN_PERSON_AND_ORGANIZATION_ASSIGNMENT(#32,#10,(#38));
#17=CC_DESIGN_PERSON_AND_ORGANIZATION_ASSIGNMENT(#32,#7,(#37));
#18=CC_DESIGN_PERSON_AND_ORGANIZATION_ASSIGNMENT(#32,#7,(#36));
#19=CC_DESIGN_PERSON_AND_ORGANIZATION_ASSIGNMENT(#32,#8,(#36));
#20=CC_DESIGN_SECURITY_CLASSIFICATION(#35,(#36));
#21=CC_DESIGN_PERSON_AND_ORGANIZATION_ASSIGNMENT(#32,#9,(#35));
#22=SHAPE_DEFINITION_REPRESENTATION(#39,#40);
#23= (GEOMETRIC_REPRESENTATION_CONTEXT(3)GLOBAL_UNCERTAINTY_ASSIGNED_CONTEXT((#43))GLOBAL_UNIT_ASSIGNED_CONTEXT((#45,#46,#47))REPRESENTATION_CONTEXT('NONE','WORKSPACE'));
#27=APPLICATION_CONTEXT('CONFIGURATION CONTROLLED 3D DESIGNS OF MECHANICAL PARTS AND ASSEMBLIES');
#28=PRODUCT_CATEGORY('part','NONE');
#29=PRODUCT_RELATED_PRODUCT_CATEGORY('detail',' ',(#38));
#30=CALENDAR_DATE(2012,1,4);
#31=LOCAL_TIME(11,22,33.0,#49);
#32=PERSON_AND_ORGANIZATION(#50,#51);
#33=APPROVAL(#52,'SOLID MODEL');
#34=APPROVAL_ROLE('APPROVED');
#35=SECURITY_CLASSIFICATION('','',#53);
#36=PRODUCT_DEFINITION_FORMATION_WITH_SPECIFIED_SOURCE(' ','NONE',#38,.NOT_KNOWN.);
#37=PRODUCT_DEFINITION('NONE','NONE',#36,#1);
#38=PRODUCT('1','1','PART-1-DESC',(#54));
#39=PRODUCT_DEFINITION_SHAPE('NONE','NONE',#37);
#40=ADVANCED_BREP_SHAPE_REPRESENTATION('1',(#55,#56),#23);
#43=UNCERTAINTY_MEASURE_WITH_UNIT(LENGTH_MEASURE(1.0E-006),#45,'','');
#45= (CONVERSION_BASED_UNIT('MILLIMETRE',#59)LENGTH_UNIT()NAMED_UNIT(#62));
#46= (NAMED_UNIT(#64)PLANE_ANGLE_UNIT()SI_UNIT($,.RADIAN.));
#47= (NAMED_UNIT(#64)SOLID_ANGLE_UNIT()SI_UNIT($,.STERADIAN.));
#49=COORDINATED_UNIVERSAL_TIME_OFFSET(9,0,.AHEAD.);
#50=PERSON('','UNSPECIFIED',$,$,$,$);
#51=ORGANIZATION('UNSPECIFIED','UNSPECIFIED','UNSPECIFIED');
#52=APPROVAL_STATUS('approved');
#53=SECURITY_CLASSIFICATION_LEVEL('unclassified');
#54=MECHANICAL_CONTEXT('',#27,'mechanical');
#55=MANIFOLD_SOLID_BREP('1',#70);
#56=AXIS2_PLACEMENT_3D('',#71,#72,#73);
#59=LENGTH_MEASURE_WITH_UNIT(LENGTH_MEASURE(1.0),#74);
#62=DIMENSIONAL_EXPONENTS(1.0,0.0,0.0,0.0,0.0,0.0,0.0);
#64=DIMENSIONAL_EXPONENTS(0.0,0.0,0.0,0.0,0.0,0.0,0.0);
#70=CLOSED_SHELL('',(#75,#76,#77,#78,#79,#80,#81,#82,#83,#84,#85,#86,#87,#88,#89,#90,#91,#92,#93,#94,#95));
#71=CARTESIAN_POINT('',(0.0,0.0,0.0));
#72=DIRECTION('',(0.0,0.0,1.0));
#73=DIRECTION('',(1.0,0.0,0.0));
#74= (NAMED_UNIT(#62)LENGTH_UNIT()SI_UNIT(.MILLI.,.METRE.));
#75=ADVANCED_FACE('',(#97,#98),#99,.T.);
#76=ADVANCED_FACE('',(#100,#101),#102,.T.);
#77=ADVANCED_FACE('',(#103,#104),#105,.T.);
#78=ADVANCED_FACE('',(#106,#107),#108,.T.);
#79=ADVANCED_FACE('',(#109,#110),#111,.T.);
#80=ADVANCED_FACE('',(#112,#113),#114,.T.);
#81=ADVANCED_FACE('',(#115,#116),#117,.T.);
#82=ADVANCED_FACE('',(#118,#119),#120,.T.);
#83=ADVANCED_FACE('',(#121,#122),#123,.T.);
#84=ADVANCED_FACE('',(#124,#125),#126,.T.);
#85=ADVANCED_FACE('',(#127,#128),#129,.T.);
#86=ADVANCED_FACE('',(#130),#131,.T.);
#87=ADVANCED_FACE('',(#132,#133),#134,.T.);
#88=ADVANCED_FACE('',(#135,#136),#137,.T.);
#89=ADVANCED_FACE('',(#138,#139),#140,.T.);
#90=ADVANCED_FACE('',(#141,#142),#143,.T.);
#91=ADVANCED_FACE('',(#144,#145),#146,.T.);
#92=ADVANCED_FACE('',(#147,#148),#149,.T.);
#93=ADVANCED_FACE('',(#150,#151),#152,.T.);
#94=ADVANCED_FACE('',(#153),#154,.T.);
#95=ADVANCED_FACE('',(#155,#156),#157,.T.);
#97=FACE_BOUND('',#158,.T.);
#98=FACE_BOUND('',#159,.T.);
#99=CYLINDRICAL_SURFACE('',#160,19.15);
#100=FACE_OUTER_BOUND('',#161,.T.);
#101=FACE_BOUND('',#162,.T.);
#102=PLANE('',#163);
#103=FACE_BOUND('',#164,.T.);
#104=FACE_BOUND('',#165,.T.);
#105=CYLINDRICAL_SURFACE('',#166,31.5);
#106=FACE_BOUND('',#167,.T.);
#107=FACE_BOUND('',#168,.T.);
#108=CONICAL_SURFACE('',#169,30.19879763,1.04719755326565);
#109=FACE_BOUND('',#170,.T.);
#110=FACE_OUTER_BOUND('',#171,.T.);
#111=PLANE('',#172);
#112=FACE_BOUND('',#173,.T.);
#113=FACE_BOUND('',#174,.T.);
#114=CYLINDRICAL_SURFACE('',#175,27.5);
#115=FACE_OUTER_BOUND('',#176,.T.);
#116=FACE_BOUND('',#177,.T.);
#117=PLANE('',#178);
#118=FACE_BOUND('',#179,.T.);
#119=FACE_BOUND('',#180,.T.);
#120=CONICAL_SURFACE('',#181,30.19879763,1.04719755326565);
#121=FACE_BOUND('',#182,.T.);
#122=FACE_BOUND('',#183,.T.);
#123=CYLINDRICAL_SURFACE('',#184,31.5);
#124=FACE_BOUND('',#185,.T.);
#125=FACE_OUTER_BOUND('',#186,.T.);
#126=PLANE('',#187);
#127=FACE_BOUND('',#188,.T.);
#128=FACE_BOUND('',#189,.T.);
#129=CONICAL_SURFACE('',#190,14.749999985,0.785398164897448);
#130=FACE_OUTER_BOUND('',#191,.T.);
#131=PLANE('',#192);
#132=FACE_BOUND('',#193,.T.);
#133=FACE_BOUND('',#194,.T.);
#134=CONICAL_SURFACE('',#195,18.5750000005215,0.049958395676703);
#135=FACE_BOUND('',#196,.T.);
#136=FACE_OUTER_BOUND('',#197,.T.);
#137=PLANE('',#198);
#138=FACE_BOUND('',#199,.T.);
#139=FACE_BOUND('',#200,.T.);
#140=CYLINDRICAL_SURFACE('',#201,7.99999616);
#141=FACE_OUTER_BOUND('',#202,.T.);
#142=FACE_BOUND('',#203,.T.);
#143=PLANE('',#204);
#144=FACE_BOUND('',#205,.T.);
#145=FACE_BOUND('',#206,.T.);
#146=CYLINDRICAL_SURFACE('',#207,10.15);
#147=FACE_BOUND('',#208,.T.);
#148=FACE_BOUND('',#209,.T.);
#149=CONICAL_SURFACE('',#210,10.075,0.785398163397431);
#150=FACE_BOUND('',#211,.T.);
#151=FACE_BOUND('',#212,.T.);
#152=CYLINDRICAL_SURFACE('',#213,10.0);
#153=FACE_OUTER_BOUND('',#214,.T.);
#154=PLANE('',#215);
#155=FACE_BOUND('',#216,.T.);
#156=FACE_BOUND('',#217,.T.);
#157=CYLINDRICAL_SURFACE('',#218,9.74999997);
#158=EDGE_LOOP('',(#219));
#159=EDGE_LOOP('',(#220));
#160=AXIS2_PLACEMENT_3D('',#221,#222,#223);
#161=EDGE_LOOP('',(#224));
#162=EDGE_LOOP('',(#225));
#163=AXIS2_PLACEMENT_3D('',#226,#227,#228);
#164=EDGE_LOOP('',(#229));
#165=EDGE_LOOP('',(#230));
#166=AXIS2_PLACEMENT_3D('',#231,#232,#233);
#167=EDGE_LOOP('',(#234));
#168=EDGE_LOOP('',(#235));
#169=AXIS2_PLACEMENT_3D('',#236,#237,#238);
#170=EDGE_LOOP('',(#239));
#171=EDGE_LOOP('',(#240));
#172=AXIS2_PLACEMENT_3D('',#241,#242,#243);
#173=EDGE_LOOP('',(#244));
#174=EDGE_LOOP('',(#245));
#175=AXIS2_PLACEMENT_3D('',#246,#247,#248);
#176=EDGE_LOOP('',(#249));
#177=EDGE_LOOP('',(#250));
#178=AXIS2_PLACEMENT_3D('',#251,#252,#253);
#179=EDGE_LOOP('',(#254));
#180=EDGE_LOOP('',(#255));
#181=AXIS2_PLACEMENT_3D('',#256,#257,#258);
#182=EDGE_LOOP('',(#259));
#183=EDGE_LOOP('',(#260));
#184=AXIS2_PLACEMENT_3D('',#261,#262,#263);
#185=EDGE_LOOP('',(#264));
#186=EDGE_LOOP('',(#265));
#187=AXIS2_PLACEMENT_3D('',#266,#267,#268);
#188=EDGE_LOOP('',(#269));
#189=EDGE_LOOP('',(#270));
#190=AXIS2_PLACEMENT_3D('',#271,#272,#273);
#191=EDGE_LOOP('',(#274));
#192=AXIS2_PLACEMENT_3D('',#275,#276,#277);
#193=EDGE_LOOP('',(#278));
#194=EDGE_LOOP('',(#279));
#195=AXIS2_PLACEMENT_3D('',#280,#281,#282);
#196=EDGE_LOOP('',(#283));
#197=EDGE_LOOP('',(#284));
#198=AXIS2_PLACEMENT_3D('',#285,#286,#287);
#199=EDGE_LOOP('',(#288));
#200=EDGE_LOOP('',(#289));
#201=AXIS2_PLACEMENT_3D('',#290,#291,#292);
#202=EDGE_LOOP('',(#293));
#203=EDGE_LOOP('',(#294));
#204=AXIS2_PLACEMENT_3D('',#295,#296,#297);
#205=EDGE_LOOP('',(#298));
#206=EDGE_LOOP('',(#299));
#207=AXIS2_PLACEMENT_3D('',#300,#301,#302);
#208=EDGE_LOOP('',(#303));
#209=EDGE_LOOP('',(#304));
#210=AXIS2_PLACEMENT_3D('',#305,#306,#307);
#211=EDGE_LOOP('',(#308));
#212=EDGE_LOOP('',(#309));
#213=AXIS2_PLACEMENT_3D('',#310,#311,#312);
#214=EDGE_LOOP('',(#313));
#215=AXIS2_PLACEMENT_3D('',#314,#315,#316);
#216=EDGE_LOOP('',(#317));
#217=EDGE_LOOP('',(#318));
#218=AXIS2_PLACEMENT_3D('',#319,#320,#321);
#219=ORIENTED_EDGE('',*,*,#322,.F.);
#220=ORIENTED_EDGE('',*,*,#323,.T.);
#221=CARTESIAN_POINT('',(-6.12323399573677E-017,-1.22464679914735E-016,1.0));
#222=DIRECTION('',(-6.12323399573677E-017,-1.22464679914735E-016,1.0));
#223=DIRECTION('',(-1.23259516440783E-032,1.0,1.22464679914735E-016));
#224=ORIENTED_EDGE('',*,*,#324,.F.);
#225=ORIENTED_EDGE('',*,*,#322,.T.);
#226=CARTESIAN_POINT('',(-3.09093108388415E-031,25.325,3.05141801884067E-015));
#227=DIRECTION('',(-6.12323399573677E-017,-1.14367513922832E-016,1.0));
#228=DIRECTION('',(1.18301432233709E-032,-1.0,-1.14367513922832E-016));
#229=ORIENTED_EDGE('',*,*,#325,.F.);
#230=ORIENTED_EDGE('',*,*,#324,.T.);
#231=CARTESIAN_POINT('',(4.47684973986342E-016,8.95369947972684E-016,-7.311250465));
#232=DIRECTION('',(-6.12323399573677E-017,-1.22464679914735E-016,1.0));
#233=DIRECTION('',(-1.23259516440783E-032,1.0,1.22464679914735E-016));
#234=ORIENTED_EDGE('',*,*,#326,.F.);
#235=ORIENTED_EDGE('',*,*,#325,.T.);
#236=CARTESIAN_POINT('',(9.41370714892619E-016,1.88274142978524E-015,-15.373750465));
#237=DIRECTION('',(-6.12323399573677E-017,-1.22464679914735E-016,1.0));
#238=DIRECTION('',(-1.23259516440783E-032,1.0,1.22464679914735E-016));
#239=ORIENTED_EDGE('',*,*,#327,.F.);
#240=ORIENTED_EDGE('',*,*,#326,.T.);
#241=CARTESIAN_POINT('',(9.87371481812553E-016,28.19879763,-16.125));
#242=DIRECTION('',(6.12323399573677E-017,1.22464679914735E-016,-1.0));
#243=DIRECTION('',(-1.23259516440783E-032,1.0,1.22464679914735E-016));
#244=ORIENTED_EDGE('',*,*,#328,.F.);
#245=ORIENTED_EDGE('',*,*,#327,.T.);
#246=CARTESIAN_POINT('',(1.10218211923262E-015,2.20436423846524E-015,-18.0));
#247=DIRECTION('',(-6.12323399573677E-017,-1.22464679914735E-016,1.0));
#248=DIRECTION('',(-1.23259516440783E-032,1.0,1.22464679914735E-016));
#249=ORIENTED_EDGE('',*,*,#329,.F.);
#250=ORIENTED_EDGE('',*,*,#328,.T.);
#251=CARTESIAN_POINT('',(1.21699275665268E-015,28.19879763,-19.875));
#252=DIRECTION('',(-6.12323399573677E-017,-1.22464679914735E-016,1.0));
#253=DIRECTION('',(1.23259516440783E-032,-1.0,-1.22464679914735E-016));
#254=ORIENTED_EDGE('',*,*,#330,.F.);
#255=ORIENTED_EDGE('',*,*,#329,.T.);
#256=CARTESIAN_POINT('',(1.26299352357262E-015,2.52598704714523E-015,-20.626249535));
#257=DIRECTION('',(6.12323399573677E-017,1.22464679914735E-016,-1.0));
#258=DIRECTION('',(-1.23259516440783E-032,1.0,1.22464679914735E-016));
#259=ORIENTED_EDGE('',*,*,#331,.F.);
#260=ORIENTED_EDGE('',*,*,#330,.T.);
#261=CARTESIAN_POINT('',(1.45051756469205E-015,2.90103512938411E-015,-23.688749535));
#262=DIRECTION('',(-6.12323399573677E-017,-1.22464679914735E-016,1.0));
#263=DIRECTION('',(-1.23259516440783E-032,1.0,1.22464679914735E-016));
#264=ORIENTED_EDGE('',*,*,#332,.F.);
#265=ORIENTED_EDGE('',*,*,#331,.T.);
#266=CARTESIAN_POINT('',(1.59204083889156E-015,25.625,-26.0));
#267=DIRECTION('',(6.12323399573677E-017,1.22464679914735E-016,-1.0));
#268=DIRECTION('',(-1.23259516440783E-032,1.0,1.22464679914735E-016));
#269=ORIENTED_EDGE('',*,*,#333,.F.);
#270=ORIENTED_EDGE('',*,*,#332,.T.);
#271=CARTESIAN_POINT('',(1.8982025386784E-015,3.79640507735679E-015,-31.0));
#272=DIRECTION('',(-6.12323399573677E-017,-1.22464679914735E-016,1.0));
#273=DIRECTION('',(-1.23259516440783E-032,1.0,1.22464679914735E-016));
#274=ORIENTED_EDGE('',*,*,#334,.F.);
#275=CARTESIAN_POINT('',(-1.53080849893419E-015,9.00000000052154,25.0));
#276=DIRECTION('',(-6.12323399573677E-017,-1.22464679914735E-016,1.0));
#277=DIRECTION('',(1.23259516440783E-032,-1.0,-1.22464679914735E-016));
#278=ORIENTED_EDGE('',*,*,#323,.F.);
#279=ORIENTED_EDGE('',*,*,#334,.T.);
#280=CARTESIAN_POINT('',(-8.26636589424463E-016,-1.65327317884893E-015,13.5));
#281=DIRECTION('',(6.12323399573677E-017,1.22464679914735E-016,-1.0));
#282=DIRECTION('',(-1.23259516440783E-032,1.0,1.22464679914735E-016));
#283=ORIENTED_EDGE('',*,*,#335,.F.);
#284=ORIENTED_EDGE('',*,*,#336,.T.);
#285=CARTESIAN_POINT('',(5.05455033538828E-015,8.87499806500001,-82.54707135));
#286=DIRECTION('',(6.12323399573677E-017,1.22464679914735E-016,-1.0));
#287=DIRECTION('',(-1.23259516440783E-032,1.0,1.22464679914735E-016));
#288=ORIENTED_EDGE('',*,*,#337,.F.);
#289=ORIENTED_EDGE('',*,*,#335,.T.);
#290=CARTESIAN_POINT('',(5.11128365121093E-015,1.02225673024218E-014,-83.47359671));
#291=DIRECTION('',(-6.12323399573677E-017,-1.22464679914735E-016,1.0));
#292=DIRECTION('',(-1.23259516440783E-032,1.0,1.22464679914735E-016));
#293=ORIENTED_EDGE('',*,*,#338,.F.);
#294=ORIENTED_EDGE('',*,*,#337,.T.);
#295=CARTESIAN_POINT('',(5.16801696703357E-015,9.07499808000001,-84.40012207));
#296=DIRECTION('',(-6.12323399573677E-017,-1.22464679914735E-016,1.0));
#297=DIRECTION('',(1.23259516440783E-032,-1.0,-1.22464679914735E-016));
#298=ORIENTED_EDGE('',*,*,#339,.F.);
#299=ORIENTED_EDGE('',*,*,#338,.T.);
#300=CARTESIAN_POINT('',(5.22771633331646E-015,1.04554326666329E-014,-85.37508671));
#301=DIRECTION('',(-6.12323399573677E-017,-1.22464679914735E-016,1.0));
#302=DIRECTION('',(-1.23259516440783E-032,1.0,1.22464679914735E-016));
#303=ORIENTED_EDGE('',*,*,#340,.F.);
#304=ORIENTED_EDGE('',*,*,#339,.T.);
#305=CARTESIAN_POINT('',(5.29200812509616E-015,1.05840162501923E-014,-86.42505135));
#306=DIRECTION('',(-6.12323399573677E-017,-1.22464679914735E-016,1.0));
#307=DIRECTION('',(-1.23259516440783E-032,1.0,1.22464679914735E-016));
#308=ORIENTED_EDGE('',*,*,#341,.F.);
#309=ORIENTED_EDGE('',*,*,#340,.T.);
#310=CARTESIAN_POINT('',(5.86299812305828E-015,1.17259962461166E-014,-95.750025675));
#311=DIRECTION('',(-6.12323399573677E-017,-1.22464679914735E-016,1.0));
#312=DIRECTION('',(-1.23259516440783E-032,1.0,1.22464679914735E-016));
#313=ORIENTED_EDGE('',*,*,#341,.T.);
#314=CARTESIAN_POINT('',(6.4293956955236E-015,5.00000000000001,-105.0));
#315=DIRECTION('',(6.12323399573677E-017,1.22464679914735E-016,-1.0));
#316=DIRECTION('',(-1.23259516440783E-032,1.0,1.22464679914735E-016));
#317=ORIENTED_EDGE('',*,*,#336,.F.);
#318=ORIENTED_EDGE('',*,*,#333,.T.);
#319=CARTESIAN_POINT('',(3.62945728692676E-015,7.25891457385352E-015,-59.273535675));
#320=DIRECTION('',(-6.12323399573677E-017,-1.22464679914735E-016,1.0));
#321=DIRECTION('',(-1.23259516440783E-032,1.0,1.22464679914735E-016));
#322=EDGE_CURVE('',#342,#342,#343,.T.);
#323=EDGE_CURVE('',#344,#344,#345,.T.);
#324=EDGE_CURVE('',#346,#346,#347,.T.);
#325=EDGE_CURVE('',#348,#348,#349,.T.);
#326=EDGE_CURVE('',#350,#350,#351,.T.);
#327=EDGE_CURVE('',#352,#352,#353,.T.);
#328=EDGE_CURVE('',#354,#354,#355,.T.);
#329=EDGE_CURVE('',#356,#356,#357,.T.);
#330=EDGE_CURVE('',#358,#358,#359,.T.);
#331=EDGE_CURVE('',#360,#360,#361,.T.);
#332=EDGE_CURVE('',#362,#362,#363,.T.);
#333=EDGE_CURVE('',#364,#364,#365,.T.);
#334=EDGE_CURVE('',#366,#366,#367,.T.);
#335=EDGE_CURVE('',#368,#368,#369,.T.);
#336=EDGE_CURVE('',#370,#370,#371,.T.);
#337=EDGE_CURVE('',#372,#372,#373,.T.);
#338=EDGE_CURVE('',#374,#374,#375,.T.);
#339=EDGE_CURVE('',#376,#376,#377,.T.);
#340=EDGE_CURVE('',#378,#378,#379,.T.);
#341=EDGE_CURVE('',#380,#380,#381,.T.);
#342=VERTEX_POINT('',#382);
#343=CIRCLE('',#383,19.15);
#344=VERTEX_POINT('',#384);
#345=CIRCLE('',#385,19.15);
#346=VERTEX_POINT('',#386);
#347=CIRCLE('',#387,31.5);
#348=VERTEX_POINT('',#388);
#349=CIRCLE('',#389,31.5);
#350=VERTEX_POINT('',#390);
#351=CIRCLE('',#391,28.89759526);
#352=VERTEX_POINT('',#392);
#353=CIRCLE('',#393,27.5);
#354=VERTEX_POINT('',#394);
#355=CIRCLE('',#395,27.5);
#356=VERTEX_POINT('',#396);
#357=CIRCLE('',#397,28.89759526);
#358=VERTEX_POINT('',#398);
#359=CIRCLE('',#399,31.5);
#360=VERTEX_POINT('',#400);
#361=CIRCLE('',#401,31.5);
#362=VERTEX_POINT('',#402);
#363=CIRCLE('',#403,19.75);
#364=VERTEX_POINT('',#404);
#365=CIRCLE('',#405,9.74999997);
#366=VERTEX_POINT('',#406);
#367=CIRCLE('',#407,18.0000000010431);
#368=VERTEX_POINT('',#408);
#369=CIRCLE('',#409,7.99999616);
#370=VERTEX_POINT('',#410);
#371=CIRCLE('',#411,9.74999997);
#372=VERTEX_POINT('',#412);
#373=CIRCLE('',#413,7.99999616);
#374=VERTEX_POINT('',#414);
#375=CIRCLE('',#415,10.15);
#376=VERTEX_POINT('',#416);
#377=CIRCLE('',#417,10.15);
#378=VERTEX_POINT('',#418);
#379=CIRCLE('',#419,10.0);
#380=VERTEX_POINT('',#420);
#381=CIRCLE('',#421,10.0);
#382=CARTESIAN_POINT('',(-2.360419739841E-031,19.15,2.34519862036718E-015));
#383=AXIS2_PLACEMENT_3D('',#422,#423,#424);
#384=CARTESIAN_POINT('',(-1.22464679914736E-016,19.15,2.0));
#385=AXIS2_PLACEMENT_3D('',#425,#426,#427);
#386=CARTESIAN_POINT('',(-3.8214424279273E-031,31.5,3.75763741731416E-015));
#387=AXIS2_PLACEMENT_3D('',#428,#429,#430);
#388=CARTESIAN_POINT('',(8.95369947972684E-016,31.5,-14.62250093));
#389=AXIS2_PLACEMENT_3D('',#431,#432,#433);
#390=CARTESIAN_POINT('',(9.87371481812553E-016,28.89759526,-16.125));
#391=AXIS2_PLACEMENT_3D('',#434,#435,#436);
#392=CARTESIAN_POINT('',(9.87371481812553E-016,27.5,-16.125));
#393=AXIS2_PLACEMENT_3D('',#437,#438,#439);
#394=CARTESIAN_POINT('',(1.21699275665268E-015,27.5,-19.875));
#395=AXIS2_PLACEMENT_3D('',#440,#441,#442);
#396=CARTESIAN_POINT('',(1.21699275665268E-015,28.89759526,-19.875));
#397=AXIS2_PLACEMENT_3D('',#443,#444,#445);
#398=CARTESIAN_POINT('',(1.30899429049255E-015,31.5,-21.37749907));
#399=AXIS2_PLACEMENT_3D('',#446,#447,#448);
#400=CARTESIAN_POINT('',(1.59204083889156E-015,31.5,-26.0));
#401=AXIS2_PLACEMENT_3D('',#449,#450,#451);
#402=CARTESIAN_POINT('',(1.59204083889156E-015,19.75,-26.0));
#403=AXIS2_PLACEMENT_3D('',#452,#453,#454);
#404=CARTESIAN_POINT('',(2.20436423846524E-015,9.74999997,-36.0));
#405=AXIS2_PLACEMENT_3D('',#455,#456,#457);
#406=CARTESIAN_POINT('',(-1.53080849893419E-015,18.0000000010431,25.0));
#407=AXIS2_PLACEMENT_3D('',#458,#459,#460);
#408=CARTESIAN_POINT('',(5.05455033538828E-015,7.99999616000001,-82.54707135));
#409=AXIS2_PLACEMENT_3D('',#461,#462,#463);
#410=CARTESIAN_POINT('',(5.05455033538828E-015,9.74999997000001,-82.54707135));
#411=AXIS2_PLACEMENT_3D('',#464,#465,#466);
#412=CARTESIAN_POINT('',(5.16801696703357E-015,7.99999616000001,-84.40012207));
#413=AXIS2_PLACEMENT_3D('',#467,#468,#469);
#414=CARTESIAN_POINT('',(5.16801696703357E-015,10.15,-84.40012207));
#415=AXIS2_PLACEMENT_3D('',#470,#471,#472);
#416=CARTESIAN_POINT('',(5.28741569959935E-015,10.15,-86.35005135));
#417=AXIS2_PLACEMENT_3D('',#473,#474,#475);
#418=CARTESIAN_POINT('',(5.29660055059296E-015,10.0,-86.50005135));
#419=AXIS2_PLACEMENT_3D('',#476,#477,#478);
#420=CARTESIAN_POINT('',(6.4293956955236E-015,10.0,-105.0));
#421=AXIS2_PLACEMENT_3D('',#479,#480,#481);
#422=CARTESIAN_POINT('',(0.0,0.0,0.0));
#423=DIRECTION('',(6.12323399573677E-017,1.22464679914735E-016,-1.0));
#424=DIRECTION('',(-1.23259516440783E-032,1.0,1.22464679914735E-016));
#425=CARTESIAN_POINT('',(-1.22464679914735E-016,-2.44929359829471E-016,2.0));
#426=DIRECTION('',(6.12323399573677E-017,1.22464679914735E-016,-1.0));
#427=DIRECTION('',(-1.23259516440783E-032,1.0,1.22464679914735E-016));
#428=CARTESIAN_POINT('',(0.0,0.0,0.0));
#429=DIRECTION('',(6.12323399573677E-017,1.22464679914735E-016,-1.0));
#430=DIRECTION('',(-1.23259516440783E-032,1.0,1.22464679914735E-016));
#431=CARTESIAN_POINT('',(8.95369947972685E-016,1.79073989594537E-015,-14.62250093));
#432=DIRECTION('',(6.12323399573677E-017,1.22464679914735E-016,-1.0));
#433=DIRECTION('',(-1.23259516440783E-032,1.0,1.22464679914735E-016));
#434=CARTESIAN_POINT('',(9.87371481812553E-016,1.97474296362511E-015,-16.125));
#435=DIRECTION('',(6.12323399573677E-017,1.22464679914735E-016,-1.0));
#436=DIRECTION('',(-1.23259516440783E-032,1.0,1.22464679914735E-016));
#437=CARTESIAN_POINT('',(9.87371481812553E-016,1.97474296362511E-015,-16.125));
#438=DIRECTION('',(6.12323399573677E-017,1.22464679914735E-016,-1.0));
#439=DIRECTION('',(-1.23259516440783E-032,1.0,1.22464679914735E-016));
#440=CARTESIAN_POINT('',(1.21699275665268E-015,2.43398551330536E-015,-19.875));
#441=DIRECTION('',(6.12323399573677E-017,1.22464679914735E-016,-1.0));
#442=DIRECTION('',(-1.23259516440783E-032,1.0,1.22464679914735E-016));
#443=CARTESIAN_POINT('',(1.21699275665268E-015,2.43398551330536E-015,-19.875));
#444=DIRECTION('',(6.12323399573677E-017,1.22464679914735E-016,-1.0));
#445=DIRECTION('',(-1.23259516440783E-032,1.0,1.22464679914735E-016));
#446=CARTESIAN_POINT('',(1.30899429049255E-015,2.6179885809851E-015,-21.37749907));
#447=DIRECTION('',(6.12323399573677E-017,1.22464679914735E-016,-1.0));
#448=DIRECTION('',(-1.23259516440783E-032,1.0,1.22464679914735E-016));
#449=CARTESIAN_POINT('',(1.59204083889156E-015,3.18408167778312E-015,-26.0));
#450=DIRECTION('',(6.12323399573677E-017,1.22464679914735E-016,-1.0));
#451=DIRECTION('',(-1.23259516440783E-032,1.0,1.22464679914735E-016));
#452=CARTESIAN_POINT('',(1.59204083889156E-015,3.18408167778312E-015,-26.0));
#453=DIRECTION('',(6.12323399573677E-017,1.22464679914735E-016,-1.0));
#454=DIRECTION('',(-1.23259516440783E-032,1.0,1.22464679914735E-016));
#455=CARTESIAN_POINT('',(2.20436423846524E-015,4.40872847693047E-015,-36.0));
#456=DIRECTION('',(6.12323399573677E-017,1.22464679914735E-016,-1.0));
#457=DIRECTION('',(-1.23259516440783E-032,1.0,1.22464679914735E-016));
#458=CARTESIAN_POINT('',(-1.53080849893419E-015,-3.06161699786838E-015,25.0));
#459=DIRECTION('',(6.12323399573677E-017,1.22464679914735E-016,-1.0));
#460=DIRECTION('',(-1.23259516440783E-032,1.0,1.22464679914735E-016));
#461=CARTESIAN_POINT('',(5.05455033538828E-015,1.01091006707766E-014,-82.54707135));
#462=DIRECTION('',(6.12323399573677E-017,1.22464679914735E-016,-1.0));
#463=DIRECTION('',(-1.23259516440783E-032,1.0,1.22464679914735E-016));
#464=CARTESIAN_POINT('',(5.05455033538828E-015,1.01091006707766E-014,-82.54707135));
#465=DIRECTION('',(6.12323399573677E-017,1.22464679914735E-016,-1.0));
#466=DIRECTION('',(-1.23259516440783E-032,1.0,1.22464679914735E-016));
#467=CARTESIAN_POINT('',(5.16801696703357E-015,1.03360339340671E-014,-84.40012207));
#468=DIRECTION('',(6.12323399573677E-017,1.22464679914735E-016,-1.0));
#469=DIRECTION('',(-1.23259516440783E-032,1.0,1.22464679914735E-016));
#470=CARTESIAN_POINT('',(5.16801696703357E-015,1.03360339340671E-014,-84.40012207));
#471=DIRECTION('',(6.12323399573677E-017,1.22464679914735E-016,-1.0));
#472=DIRECTION('',(-1.23259516440783E-032,1.0,1.22464679914735E-016));
#473=CARTESIAN_POINT('',(5.28741569959935E-015,1.05748313991987E-014,-86.35005135));
#474=DIRECTION('',(6.12323399573677E-017,1.22464679914735E-016,-1.0));
#475=DIRECTION('',(-1.23259516440783E-032,1.0,1.22464679914735E-016));
#476=CARTESIAN_POINT('',(5.29660055059296E-015,1.05932011011859E-014,-86.50005135));
#477=DIRECTION('',(6.12323399573677E-017,1.22464679914735E-016,-1.0));
#478=DIRECTION('',(-1.23259516440783E-032,1.0,1.22464679914735E-016));
#479=CARTESIAN_POINT('',(6.4293956955236E-015,1.28587913910472E-014,-105.0));
#480=DIRECTION('',(6.12323399573677E-017,1.22464679914735E-016,-1.0));
#481=DIRECTION('',(-1.23259516440783E-032,1.0,1.22464679914735E-016));
ENDSEC;
END-ISO-10303-21;
