ISO-10303-21;
HEADER;
FILE_DESCRIPTION((''),'1');
FILE_NAME('//Big_tech03/bigt/Translate/21_\X2\8F2A90ED7DDA\X0\-DXF/01_\X2\30E130AC30C130E330C330AF30B730EA30FC30BA\X0\/01_\X2\30E130AC30DE30A430AF30ED30C130E330C330AF\X0\ MEGA-S/HSK/F 63/HSK-F63-MEGA4S-75.stp','2012-04-24T07:34:56',(''),(''),'Spatial Interop R18','Kubotek KeyCreator V8.5.1 (14335)',' ');
FILE_SCHEMA(('CONFIG_CONTROL_DESIGN'));
ENDSEC;
DATA;
#1=DESIGN_CONTEXT('',#27,'design');
#2=APPLICATION_PROTOCOL_DEFINITION('INTERNATIONAL STANDARD','config_control_design',1994,#27);
#3=PRODUCT_CATEGORY_RELATIONSHIP('NONE','NONE',#28,#29);
#4=DATE_AND_TIME(#30,#31);
#5=DATE_TIME_ROLE('creation_date');
#6=DATE_TIME_ROLE('classification_date');
#7=PERSON_AND_ORGANIZATION_ROLE('creator');
#8=PERSON_AND_ORGANIZATION_ROLE('design_supplier');
#9=PERSON_AND_ORGANIZATION_ROLE('classification_officer');
#10=PERSON_AND_ORGANIZATION_ROLE('design_owner');
#11=APPROVAL_PERSON_ORGANIZATION(#32,#33,#34);
#12=APPROVAL_DATE_TIME(#4,#33);
#13=CC_DESIGN_APPROVAL(#33,(#35,#36,#37));
#14=CC_DESIGN_DATE_AND_TIME_ASSIGNMENT(#4,#5,(#37));
#15=CC_DESIGN_DATE_AND_TIME_ASSIGNMENT(#4,#6,(#35));
#16=CC_DESIGN_PERSON_AND_ORGANIZATION_ASSIGNMENT(#32,#10,(#38));
#17=CC_DESIGN_PERSON_AND_ORGANIZATION_ASSIGNMENT(#32,#7,(#37));
#18=CC_DESIGN_PERSON_AND_ORGANIZATION_ASSIGNMENT(#32,#7,(#36));
#19=CC_DESIGN_PERSON_AND_ORGANIZATION_ASSIGNMENT(#32,#8,(#36));
#20=CC_DESIGN_SECURITY_CLASSIFICATION(#35,(#36));
#21=CC_DESIGN_PERSON_AND_ORGANIZATION_ASSIGNMENT(#32,#9,(#35));
#22=SHAPE_DEFINITION_REPRESENTATION(#39,#40);
#23= (GEOMETRIC_REPRESENTATION_CONTEXT(3)GLOBAL_UNCERTAINTY_ASSIGNED_CONTEXT((#43))GLOBAL_UNIT_ASSIGNED_CONTEXT((#45,#46,#47))REPRESENTATION_CONTEXT('NONE','WORKSPACE'));
#27=APPLICATION_CONTEXT('CONFIGURATION CONTROLLED 3D DESIGNS OF MECHANICAL PARTS AND ASSEMBLIES');
#28=PRODUCT_CATEGORY('part','NONE');
#29=PRODUCT_RELATED_PRODUCT_CATEGORY('detail',' ',(#38));
#30=CALENDAR_DATE(2012,24,3);
#31=LOCAL_TIME(16,34,56.0,#49);
#32=PERSON_AND_ORGANIZATION(#50,#51);
#33=APPROVAL(#52,'SOLID MODEL');
#34=APPROVAL_ROLE('APPROVED');
#35=SECURITY_CLASSIFICATION('','',#53);
#36=PRODUCT_DEFINITION_FORMATION_WITH_SPECIFIED_SOURCE(' ','NONE',#38,.NOT_KNOWN.);
#37=PRODUCT_DEFINITION('NONE','NONE',#36,#1);
#38=PRODUCT('1','1','PART-1-DESC',(#54));
#39=PRODUCT_DEFINITION_SHAPE('NONE','NONE',#37);
#40=ADVANCED_BREP_SHAPE_REPRESENTATION('1',(#55,#56),#23);
#43=UNCERTAINTY_MEASURE_WITH_UNIT(LENGTH_MEASURE(1.0E-006),#45,'','');
#45= (CONVERSION_BASED_UNIT('MILLIMETRE',#59)LENGTH_UNIT()NAMED_UNIT(#62));
#46= (NAMED_UNIT(#64)PLANE_ANGLE_UNIT()SI_UNIT($,.RADIAN.));
#47= (NAMED_UNIT(#64)SOLID_ANGLE_UNIT()SI_UNIT($,.STERADIAN.));
#49=COORDINATED_UNIVERSAL_TIME_OFFSET(9,0,.AHEAD.);
#50=PERSON('','UNSPECIFIED',$,$,$,$);
#51=ORGANIZATION('UNSPECIFIED','UNSPECIFIED','UNSPECIFIED');
#52=APPROVAL_STATUS('approved');
#53=SECURITY_CLASSIFICATION_LEVEL('unclassified');
#54=MECHANICAL_CONTEXT('',#27,'mechanical');
#55=MANIFOLD_SOLID_BREP('1',#70);
#56=AXIS2_PLACEMENT_3D('',#71,#72,#73);
#59=LENGTH_MEASURE_WITH_UNIT(LENGTH_MEASURE(1.0),#74);
#62=DIMENSIONAL_EXPONENTS(1.0,0.0,0.0,0.0,0.0,0.0,0.0);
#64=DIMENSIONAL_EXPONENTS(0.0,0.0,0.0,0.0,0.0,0.0,0.0);
#70=CLOSED_SHELL('',(#75,#76,#77,#78,#79,#80,#81,#82,#83,#84,#85,#86,#87,#88,#89,#90,#91,#92,#93,#94,#95,#96,#97,#98,#99));
#71=CARTESIAN_POINT('',(0.0,0.0,0.0));
#72=DIRECTION('',(0.0,0.0,1.0));
#73=DIRECTION('',(1.0,0.0,0.0));
#74= (NAMED_UNIT(#62)LENGTH_UNIT()SI_UNIT(.MILLI.,.METRE.));
#75=ADVANCED_FACE('',(#101),#102,.T.);
#76=ADVANCED_FACE('',(#103),#104,.T.);
#77=ADVANCED_FACE('',(#105,#106),#107,.T.);
#78=ADVANCED_FACE('',(#108,#109),#110,.T.);
#79=ADVANCED_FACE('',(#111,#112),#113,.T.);
#80=ADVANCED_FACE('',(#114,#115),#116,.T.);
#81=ADVANCED_FACE('',(#117,#118),#119,.T.);
#82=ADVANCED_FACE('',(#120,#121),#122,.T.);
#83=ADVANCED_FACE('',(#123,#124),#125,.T.);
#84=ADVANCED_FACE('',(#126,#127),#128,.T.);
#85=ADVANCED_FACE('',(#129,#130),#131,.T.);
#86=ADVANCED_FACE('',(#132,#133),#134,.T.);
#87=ADVANCED_FACE('',(#135,#136),#137,.T.);
#88=ADVANCED_FACE('',(#138,#139),#140,.T.);
#89=ADVANCED_FACE('',(#141,#142),#143,.T.);
#90=ADVANCED_FACE('',(#144,#145),#146,.T.);
#91=ADVANCED_FACE('',(#147,#148),#149,.T.);
#92=ADVANCED_FACE('',(#150,#151),#152,.T.);
#93=ADVANCED_FACE('',(#153,#154),#155,.T.);
#94=ADVANCED_FACE('',(#156,#157),#158,.T.);
#95=ADVANCED_FACE('',(#159,#160),#161,.T.);
#96=ADVANCED_FACE('',(#162,#163),#164,.T.);
#97=ADVANCED_FACE('',(#165,#166),#167,.T.);
#98=ADVANCED_FACE('',(#168,#169),#170,.T.);
#99=ADVANCED_FACE('',(#171,#172),#173,.T.);
#101=FACE_OUTER_BOUND('',#174,.T.);
#102=PLANE('',#175);
#103=FACE_OUTER_BOUND('',#176,.T.);
#104=PLANE('',#177);
#105=FACE_BOUND('',#178,.T.);
#106=FACE_BOUND('',#179,.T.);
#107=CONICAL_SURFACE('',#180,18.5750000005215,0.049958395676703);
#108=FACE_BOUND('',#181,.T.);
#109=FACE_BOUND('',#182,.T.);
#110=CYLINDRICAL_SURFACE('',#183,19.15);
#111=FACE_OUTER_BOUND('',#184,.T.);
#112=FACE_BOUND('',#185,.T.);
#113=PLANE('',#186);
#114=FACE_BOUND('',#187,.T.);
#115=FACE_BOUND('',#188,.T.);
#116=CYLINDRICAL_SURFACE('',#189,31.5);
#117=FACE_BOUND('',#190,.T.);
#118=FACE_BOUND('',#191,.T.);
#119=CONICAL_SURFACE('',#192,30.19879763,1.04719755326565);
#120=FACE_BOUND('',#193,.T.);
#121=FACE_OUTER_BOUND('',#194,.T.);
#122=PLANE('',#195);
#123=FACE_BOUND('',#196,.T.);
#124=FACE_BOUND('',#197,.T.);
#125=CYLINDRICAL_SURFACE('',#198,27.5);
#126=FACE_OUTER_BOUND('',#199,.T.);
#127=FACE_BOUND('',#200,.T.);
#128=PLANE('',#201);
#129=FACE_BOUND('',#202,.T.);
#130=FACE_BOUND('',#203,.T.);
#131=CONICAL_SURFACE('',#204,30.19879763,1.04719755326565);
#132=FACE_BOUND('',#205,.T.);
#133=FACE_BOUND('',#206,.T.);
#134=CYLINDRICAL_SURFACE('',#207,31.5);
#135=FACE_BOUND('',#208,.T.);
#136=FACE_OUTER_BOUND('',#209,.T.);
#137=PLANE('',#210);
#138=FACE_BOUND('',#211,.T.);
#139=FACE_BOUND('',#212,.T.);
#140=CONICAL_SURFACE('',#213,9.5,0.785398163397448);
#141=FACE_BOUND('',#214,.T.);
#142=FACE_BOUND('',#215,.T.);
#143=CYLINDRICAL_SURFACE('',#216,8.0);
#144=FACE_BOUND('',#217,.T.);
#145=FACE_BOUND('',#218,.T.);
#146=CONICAL_SURFACE('',#219,6.95,1.04719755152632);
#147=FACE_BOUND('',#220,.T.);
#148=FACE_BOUND('',#221,.T.);
#149=CYLINDRICAL_SURFACE('',#222,5.9);
#150=FACE_BOUND('',#223,.T.);
#151=FACE_BOUND('',#224,.T.);
#152=CONICAL_SURFACE('',#225,5.95,0.785398163397439);
#153=FACE_BOUND('',#226,.T.);
#154=FACE_BOUND('',#227,.T.);
#155=CYLINDRICAL_SURFACE('',#228,6.0);
#156=FACE_BOUND('',#229,.T.);
#157=FACE_BOUND('',#230,.T.);
#158=CONICAL_SURFACE('',#231,5.62500005,1.04719754014652);
#159=FACE_BOUND('',#232,.T.);
#160=FACE_BOUND('',#233,.T.);
#161=CYLINDRICAL_SURFACE('',#234,5.2500001);
#162=FACE_OUTER_BOUND('',#235,.T.);
#163=FACE_BOUND('',#236,.T.);
#164=PLANE('',#237);
#165=FACE_BOUND('',#238,.T.);
#166=FACE_BOUND('',#239,.T.);
#167=CYLINDRICAL_SURFACE('',#240,6.15000071);
#168=FACE_BOUND('',#241,.T.);
#169=FACE_BOUND('',#242,.T.);
#170=CONICAL_SURFACE('',#243,6.07500038,0.523598782746392);
#171=FACE_BOUND('',#244,.T.);
#172=FACE_BOUND('',#245,.T.);
#173=CYLINDRICAL_SURFACE('',#246,6.00000005);
#174=EDGE_LOOP('',(#247));
#175=AXIS2_PLACEMENT_3D('',#248,#249,#250);
#176=EDGE_LOOP('',(#251));
#177=AXIS2_PLACEMENT_3D('',#252,#253,#254);
#178=EDGE_LOOP('',(#255));
#179=EDGE_LOOP('',(#256));
#180=AXIS2_PLACEMENT_3D('',#257,#258,#259);
#181=EDGE_LOOP('',(#260));
#182=EDGE_LOOP('',(#261));
#183=AXIS2_PLACEMENT_3D('',#262,#263,#264);
#184=EDGE_LOOP('',(#265));
#185=EDGE_LOOP('',(#266));
#186=AXIS2_PLACEMENT_3D('',#267,#268,#269);
#187=EDGE_LOOP('',(#270));
#188=EDGE_LOOP('',(#271));
#189=AXIS2_PLACEMENT_3D('',#272,#273,#274);
#190=EDGE_LOOP('',(#275));
#191=EDGE_LOOP('',(#276));
#192=AXIS2_PLACEMENT_3D('',#277,#278,#279);
#193=EDGE_LOOP('',(#280));
#194=EDGE_LOOP('',(#281));
#195=AXIS2_PLACEMENT_3D('',#282,#283,#284);
#196=EDGE_LOOP('',(#285));
#197=EDGE_LOOP('',(#286));
#198=AXIS2_PLACEMENT_3D('',#287,#288,#289);
#199=EDGE_LOOP('',(#290));
#200=EDGE_LOOP('',(#291));
#201=AXIS2_PLACEMENT_3D('',#292,#293,#294);
#202=EDGE_LOOP('',(#295));
#203=EDGE_LOOP('',(#296));
#204=AXIS2_PLACEMENT_3D('',#297,#298,#299);
#205=EDGE_LOOP('',(#300));
#206=EDGE_LOOP('',(#301));
#207=AXIS2_PLACEMENT_3D('',#302,#303,#304);
#208=EDGE_LOOP('',(#305));
#209=EDGE_LOOP('',(#306));
#210=AXIS2_PLACEMENT_3D('',#307,#308,#309);
#211=EDGE_LOOP('',(#310));
#212=EDGE_LOOP('',(#311));
#213=AXIS2_PLACEMENT_3D('',#312,#313,#314);
#214=EDGE_LOOP('',(#315));
#215=EDGE_LOOP('',(#316));
#216=AXIS2_PLACEMENT_3D('',#317,#318,#319);
#217=EDGE_LOOP('',(#320));
#218=EDGE_LOOP('',(#321));
#219=AXIS2_PLACEMENT_3D('',#322,#323,#324);
#220=EDGE_LOOP('',(#325));
#221=EDGE_LOOP('',(#326));
#222=AXIS2_PLACEMENT_3D('',#327,#328,#329);
#223=EDGE_LOOP('',(#330));
#224=EDGE_LOOP('',(#331));
#225=AXIS2_PLACEMENT_3D('',#332,#333,#334);
#226=EDGE_LOOP('',(#335));
#227=EDGE_LOOP('',(#336));
#228=AXIS2_PLACEMENT_3D('',#337,#338,#339);
#229=EDGE_LOOP('',(#340));
#230=EDGE_LOOP('',(#341));
#231=AXIS2_PLACEMENT_3D('',#342,#343,#344);
#232=EDGE_LOOP('',(#345));
#233=EDGE_LOOP('',(#346));
#234=AXIS2_PLACEMENT_3D('',#347,#348,#349);
#235=EDGE_LOOP('',(#350));
#236=EDGE_LOOP('',(#351));
#237=AXIS2_PLACEMENT_3D('',#352,#353,#354);
#238=EDGE_LOOP('',(#355));
#239=EDGE_LOOP('',(#356));
#240=AXIS2_PLACEMENT_3D('',#357,#358,#359);
#241=EDGE_LOOP('',(#360));
#242=EDGE_LOOP('',(#361));
#243=AXIS2_PLACEMENT_3D('',#362,#363,#364);
#244=EDGE_LOOP('',(#365));
#245=EDGE_LOOP('',(#366));
#246=AXIS2_PLACEMENT_3D('',#367,#368,#369);
#247=ORIENTED_EDGE('',*,*,#370,.T.);
#248=CARTESIAN_POINT('',(4.59242549680257E-015,3.00000002500001,-75.0));
#249=DIRECTION('',(6.12323399573677E-017,1.22464679914735E-016,-1.0));
#250=DIRECTION('',(-1.23259516440783E-032,1.0,1.22464679914735E-016));
#251=ORIENTED_EDGE('',*,*,#371,.F.);
#252=CARTESIAN_POINT('',(-1.53080849893419E-015,9.00000000052154,25.0));
#253=DIRECTION('',(-6.12323399573677E-017,-1.22464679914735E-016,1.0));
#254=DIRECTION('',(1.23259516440783E-032,-1.0,-1.22464679914735E-016));
#255=ORIENTED_EDGE('',*,*,#372,.F.);
#256=ORIENTED_EDGE('',*,*,#371,.T.);
#257=CARTESIAN_POINT('',(-8.26636589424463E-016,-1.65327317884893E-015,13.5));
#258=DIRECTION('',(6.12323399573677E-017,1.22464679914735E-016,-1.0));
#259=DIRECTION('',(-1.23259516440783E-032,1.0,1.22464679914735E-016));
#260=ORIENTED_EDGE('',*,*,#373,.F.);
#261=ORIENTED_EDGE('',*,*,#372,.T.);
#262=CARTESIAN_POINT('',(-6.12323399573677E-017,-1.22464679914735E-016,1.0));
#263=DIRECTION('',(-6.12323399573677E-017,-1.22464679914735E-016,1.0));
#264=DIRECTION('',(-1.23259516440783E-032,1.0,1.22464679914735E-016));
#265=ORIENTED_EDGE('',*,*,#374,.F.);
#266=ORIENTED_EDGE('',*,*,#373,.T.);
#267=CARTESIAN_POINT('',(-3.12154725386283E-031,25.325,3.10141801884067E-015));
#268=DIRECTION('',(-6.12323399573677E-017,-1.22464679914735E-016,1.0));
#269=DIRECTION('',(1.23259516440783E-032,-1.0,-1.22464679914735E-016));
#270=ORIENTED_EDGE('',*,*,#375,.F.);
#271=ORIENTED_EDGE('',*,*,#374,.T.);
#272=CARTESIAN_POINT('',(4.47684973986342E-016,8.95369947972685E-016,-7.311250465));
#273=DIRECTION('',(-6.12323399573677E-017,-1.22464679914735E-016,1.0));
#274=DIRECTION('',(-1.23259516440783E-032,1.0,1.22464679914735E-016));
#275=ORIENTED_EDGE('',*,*,#376,.F.);
#276=ORIENTED_EDGE('',*,*,#375,.T.);
#277=CARTESIAN_POINT('',(9.41370714892619E-016,1.88274142978524E-015,-15.373750465));
#278=DIRECTION('',(-6.12323399573677E-017,-1.22464679914735E-016,1.0));
#279=DIRECTION('',(-1.23259516440783E-032,1.0,1.22464679914735E-016));
#280=ORIENTED_EDGE('',*,*,#377,.F.);
#281=ORIENTED_EDGE('',*,*,#376,.T.);
#282=CARTESIAN_POINT('',(9.87371481812553E-016,28.19879763,-16.125));
#283=DIRECTION('',(6.12323399573677E-017,1.22464679914735E-016,-1.0));
#284=DIRECTION('',(-1.23259516440783E-032,1.0,1.22464679914735E-016));
#285=ORIENTED_EDGE('',*,*,#378,.F.);
#286=ORIENTED_EDGE('',*,*,#377,.T.);
#287=CARTESIAN_POINT('',(1.10218211923262E-015,2.20436423846524E-015,-18.0));
#288=DIRECTION('',(-6.12323399573677E-017,-1.22464679914735E-016,1.0));
#289=DIRECTION('',(-1.23259516440783E-032,1.0,1.22464679914735E-016));
#290=ORIENTED_EDGE('',*,*,#379,.F.);
#291=ORIENTED_EDGE('',*,*,#378,.T.);
#292=CARTESIAN_POINT('',(1.21699275665268E-015,28.19879763,-19.875));
#293=DIRECTION('',(-6.12323399573677E-017,-1.22464679914735E-016,1.0));
#294=DIRECTION('',(1.23259516440783E-032,-1.0,-1.22464679914735E-016));
#295=ORIENTED_EDGE('',*,*,#380,.F.);
#296=ORIENTED_EDGE('',*,*,#379,.T.);
#297=CARTESIAN_POINT('',(1.26299352357262E-015,2.52598704714523E-015,-20.626249535));
#298=DIRECTION('',(6.12323399573677E-017,1.22464679914735E-016,-1.0));
#299=DIRECTION('',(-1.23259516440783E-032,1.0,1.22464679914735E-016));
#300=ORIENTED_EDGE('',*,*,#381,.F.);
#301=ORIENTED_EDGE('',*,*,#380,.T.);
#302=CARTESIAN_POINT('',(1.45051756469206E-015,2.90103512938411E-015,-23.688749535));
#303=DIRECTION('',(-6.12323399573677E-017,-1.22464679914735E-016,1.0));
#304=DIRECTION('',(-1.23259516440783E-032,1.0,1.22464679914735E-016));
#305=ORIENTED_EDGE('',*,*,#382,.F.);
#306=ORIENTED_EDGE('',*,*,#381,.T.);
#307=CARTESIAN_POINT('',(1.59204083889156E-015,21.25,-26.0));
#308=DIRECTION('',(6.12323399573677E-017,1.22464679914735E-016,-1.0));
#309=DIRECTION('',(-1.23259516440783E-032,1.0,1.22464679914735E-016));
#310=ORIENTED_EDGE('',*,*,#383,.F.);
#311=ORIENTED_EDGE('',*,*,#382,.T.);
#312=CARTESIAN_POINT('',(1.68388934882761E-015,3.36777869765522E-015,-27.5));
#313=DIRECTION('',(-6.12323399573677E-017,-1.22464679914735E-016,1.0));
#314=DIRECTION('',(-1.23259516440783E-032,1.0,1.22464679914735E-016));
#315=ORIENTED_EDGE('',*,*,#384,.F.);
#316=ORIENTED_EDGE('',*,*,#383,.T.);
#317=CARTESIAN_POINT('',(1.98354708526603E-015,3.96709417053205E-015,-32.3937822178125));
#318=DIRECTION('',(-6.12323399573677E-017,-1.22464679914735E-016,1.0));
#319=DIRECTION('',(-1.23259516440783E-032,1.0,1.22464679914735E-016));
#320=ORIENTED_EDGE('',*,*,#385,.F.);
#321=ORIENTED_EDGE('',*,*,#384,.T.);
#322=CARTESIAN_POINT('',(2.2284764450955E-015,4.45695289019099E-015,-36.3937822178125));
#323=DIRECTION('',(-6.12323399573677E-017,-1.22464679914735E-016,1.0));
#324=DIRECTION('',(-1.23259516440783E-032,1.0,1.22464679914735E-016));
#325=ORIENTED_EDGE('',*,*,#386,.F.);
#326=ORIENTED_EDGE('',*,*,#385,.T.);
#327=CARTESIAN_POINT('',(2.32682891837997E-015,4.65365783675994E-015,-38.0));
#328=DIRECTION('',(-6.12323399573677E-017,-1.22464679914735E-016,1.0));
#329=DIRECTION('',(-1.23259516440783E-032,1.0,1.22464679914735E-016));
#330=ORIENTED_EDGE('',*,*,#387,.F.);
#331=ORIENTED_EDGE('',*,*,#386,.T.);
#332=CARTESIAN_POINT('',(2.39112287533521E-015,4.78224575067041E-015,-39.05));
#333=DIRECTION('',(6.12323399573677E-017,1.22464679914735E-016,-1.0));
#334=DIRECTION('',(-1.23259516440783E-032,1.0,1.22464679914735E-016));
#335=ORIENTED_EDGE('',*,*,#388,.F.);
#336=ORIENTED_EDGE('',*,*,#387,.T.);
#337=CARTESIAN_POINT('',(3.01529577041937E-015,6.03059154083874E-015,-49.2435169473964));
#338=DIRECTION('',(-6.12323399573677E-017,-1.22464679914735E-016,1.0));
#339=DIRECTION('',(-1.23259516440783E-032,1.0,1.22464679914735E-016));
#340=ORIENTED_EDGE('',*,*,#389,.F.);
#341=ORIENTED_EDGE('',*,*,#388,.T.);
#342=CARTESIAN_POINT('',(3.64966423756041E-015,7.29932847512082E-015,-59.6035402223964));
#343=DIRECTION('',(-6.12323399573677E-017,-1.22464679914735E-016,1.0));
#344=DIRECTION('',(-1.23259516440783E-032,1.0,1.22464679914735E-016));
#345=ORIENTED_EDGE('',*,*,#390,.F.);
#346=ORIENTED_EDGE('',*,*,#389,.T.);
#347=CARTESIAN_POINT('',(3.68373895017521E-015,7.36747790035042E-015,-60.16002251));
#348=DIRECTION('',(-6.12323399573677E-017,-1.22464679914735E-016,1.0));
#349=DIRECTION('',(-1.23259516440783E-032,1.0,1.22464679914735E-016));
#350=ORIENTED_EDGE('',*,*,#391,.F.);
#351=ORIENTED_EDGE('',*,*,#390,.T.);
#352=CARTESIAN_POINT('',(3.70455647373526E-015,5.70000040500001,-60.49999847));
#353=DIRECTION('',(-6.12323399573677E-017,-1.22464679914735E-016,1.0));
#354=DIRECTION('',(1.23259516440783E-032,-1.0,-1.22464679914735E-016));
#355=ORIENTED_EDGE('',*,*,#392,.F.);
#356=ORIENTED_EDGE('',*,*,#391,.T.);
#357=CARTESIAN_POINT('',(3.76578881369263E-015,7.53157762738526E-015,-61.49999847));
#358=DIRECTION('',(-6.12323399573677E-017,-1.22464679914735E-016,1.0));
#359=DIRECTION('',(-1.23259516440783E-032,1.0,1.22464679914735E-016));
#360=ORIENTED_EDGE('',*,*,#393,.F.);
#361=ORIENTED_EDGE('',*,*,#392,.T.);
#362=CARTESIAN_POINT('',(3.83497550280811E-015,7.66995100561622E-015,-62.62990285));
#363=DIRECTION('',(-6.12323399573677E-017,-1.22464679914735E-016,1.0));
#364=DIRECTION('',(-1.23259516440783E-032,1.0,1.22464679914735E-016));
#365=ORIENTED_EDGE('',*,*,#370,.F.);
#366=ORIENTED_EDGE('',*,*,#393,.T.);
#367=CARTESIAN_POINT('',(4.2176776743844E-015,8.43535534876879E-015,-68.879903615));
#368=DIRECTION('',(-6.12323399573677E-017,-1.22464679914735E-016,1.0));
#369=DIRECTION('',(-1.23259516440783E-032,1.0,1.22464679914735E-016));
#370=EDGE_CURVE('',#394,#394,#395,.T.);
#371=EDGE_CURVE('',#396,#396,#397,.T.);
#372=EDGE_CURVE('',#398,#398,#399,.T.);
#373=EDGE_CURVE('',#400,#400,#401,.T.);
#374=EDGE_CURVE('',#402,#402,#403,.T.);
#375=EDGE_CURVE('',#404,#404,#405,.T.);
#376=EDGE_CURVE('',#406,#406,#407,.T.);
#377=EDGE_CURVE('',#408,#408,#409,.T.);
#378=EDGE_CURVE('',#410,#410,#411,.T.);
#379=EDGE_CURVE('',#412,#412,#413,.T.);
#380=EDGE_CURVE('',#414,#414,#415,.T.);
#381=EDGE_CURVE('',#416,#416,#417,.T.);
#382=EDGE_CURVE('',#418,#418,#419,.T.);
#383=EDGE_CURVE('',#420,#420,#421,.T.);
#384=EDGE_CURVE('',#422,#422,#423,.T.);
#385=EDGE_CURVE('',#424,#424,#425,.T.);
#386=EDGE_CURVE('',#426,#426,#427,.T.);
#387=EDGE_CURVE('',#428,#428,#429,.T.);
#388=EDGE_CURVE('',#430,#430,#431,.T.);
#389=EDGE_CURVE('',#432,#432,#433,.T.);
#390=EDGE_CURVE('',#434,#434,#435,.T.);
#391=EDGE_CURVE('',#436,#436,#437,.T.);
#392=EDGE_CURVE('',#438,#438,#439,.T.);
#393=EDGE_CURVE('',#440,#440,#441,.T.);
#394=VERTEX_POINT('',#442);
#395=CIRCLE('',#443,6.00000005);
#396=VERTEX_POINT('',#444);
#397=CIRCLE('',#445,18.0000000010431);
#398=VERTEX_POINT('',#446);
#399=CIRCLE('',#447,19.15);
#400=VERTEX_POINT('',#448);
#401=CIRCLE('',#449,19.15);
#402=VERTEX_POINT('',#450);
#403=CIRCLE('',#451,31.5);
#404=VERTEX_POINT('',#452);
#405=CIRCLE('',#453,31.5);
#406=VERTEX_POINT('',#454);
#407=CIRCLE('',#455,28.89759526);
#408=VERTEX_POINT('',#456);
#409=CIRCLE('',#457,27.5);
#410=VERTEX_POINT('',#458);
#411=CIRCLE('',#459,27.5);
#412=VERTEX_POINT('',#460);
#413=CIRCLE('',#461,28.89759526);
#414=VERTEX_POINT('',#462);
#415=CIRCLE('',#463,31.5);
#416=VERTEX_POINT('',#464);
#417=CIRCLE('',#465,31.5);
#418=VERTEX_POINT('',#466);
#419=CIRCLE('',#467,11.0);
#420=VERTEX_POINT('',#468);
#421=CIRCLE('',#469,8.0);
#422=VERTEX_POINT('',#470);
#423=CIRCLE('',#471,8.0);
#424=VERTEX_POINT('',#472);
#425=CIRCLE('',#473,5.9);
#426=VERTEX_POINT('',#474);
#427=CIRCLE('',#475,5.9);
#428=VERTEX_POINT('',#476);
#429=CIRCLE('',#477,6.0);
#430=VERTEX_POINT('',#478);
#431=CIRCLE('',#479,6.0);
#432=VERTEX_POINT('',#480);
#433=CIRCLE('',#481,5.2500001);
#434=VERTEX_POINT('',#482);
#435=CIRCLE('',#483,5.2500001);
#436=VERTEX_POINT('',#484);
#437=CIRCLE('',#485,6.15000071);
#438=VERTEX_POINT('',#486);
#439=CIRCLE('',#487,6.15000071);
#440=VERTEX_POINT('',#488);
#441=CIRCLE('',#489,6.00000005);
#442=CARTESIAN_POINT('',(4.59242549680257E-015,6.00000005000001,-75.0));
#443=AXIS2_PLACEMENT_3D('',#490,#491,#492);
#444=CARTESIAN_POINT('',(-1.53080849893419E-015,18.0000000010431,25.0));
#445=AXIS2_PLACEMENT_3D('',#493,#494,#495);
#446=CARTESIAN_POINT('',(-1.22464679914736E-016,19.15,2.0));
#447=AXIS2_PLACEMENT_3D('',#496,#497,#498);
#448=CARTESIAN_POINT('',(-2.360419739841E-031,19.15,2.34519862036718E-015));
#449=AXIS2_PLACEMENT_3D('',#499,#500,#501);
#450=CARTESIAN_POINT('',(-3.88267476788467E-031,31.5,3.85763741731416E-015));
#451=AXIS2_PLACEMENT_3D('',#502,#503,#504);
#452=CARTESIAN_POINT('',(8.95369947972684E-016,31.5,-14.62250093));
#453=AXIS2_PLACEMENT_3D('',#505,#506,#507);
#454=CARTESIAN_POINT('',(9.87371481812553E-016,28.89759526,-16.125));
#455=AXIS2_PLACEMENT_3D('',#508,#509,#510);
#456=CARTESIAN_POINT('',(9.87371481812553E-016,27.5,-16.125));
#457=AXIS2_PLACEMENT_3D('',#511,#512,#513);
#458=CARTESIAN_POINT('',(1.21699275665268E-015,27.5,-19.875));
#459=AXIS2_PLACEMENT_3D('',#514,#515,#516);
#460=CARTESIAN_POINT('',(1.21699275665268E-015,28.89759526,-19.875));
#461=AXIS2_PLACEMENT_3D('',#517,#518,#519);
#462=CARTESIAN_POINT('',(1.30899429049255E-015,31.5,-21.37749907));
#463=AXIS2_PLACEMENT_3D('',#520,#521,#522);
#464=CARTESIAN_POINT('',(1.59204083889156E-015,31.5,-26.0));
#465=AXIS2_PLACEMENT_3D('',#523,#524,#525);
#466=CARTESIAN_POINT('',(1.59204083889156E-015,11.0,-26.0));
#467=AXIS2_PLACEMENT_3D('',#526,#527,#528);
#468=CARTESIAN_POINT('',(1.77573785876366E-015,8.0,-29.0));
#469=AXIS2_PLACEMENT_3D('',#529,#530,#531);
#470=CARTESIAN_POINT('',(2.19135631176839E-015,8.0,-35.787564435625));
#471=AXIS2_PLACEMENT_3D('',#532,#533,#534);
#472=CARTESIAN_POINT('',(2.2655965784226E-015,5.9,-37.0));
#473=AXIS2_PLACEMENT_3D('',#535,#536,#537);
#474=CARTESIAN_POINT('',(2.38806125833734E-015,5.9,-39.0));
#475=AXIS2_PLACEMENT_3D('',#538,#539,#540);
#476=CARTESIAN_POINT('',(2.39418449233308E-015,6.0,-39.1));
#477=AXIS2_PLACEMENT_3D('',#541,#542,#543);
#478=CARTESIAN_POINT('',(3.63640704850566E-015,6.00000000000001,-59.3870338947927));
#479=AXIS2_PLACEMENT_3D('',#544,#545,#546);
#480=CARTESIAN_POINT('',(3.66292142661516E-015,5.25000010000001,-59.82004655));
#481=AXIS2_PLACEMENT_3D('',#547,#548,#549);
#482=CARTESIAN_POINT('',(3.70455647373526E-015,5.25000010000001,-60.49999847));
#483=AXIS2_PLACEMENT_3D('',#550,#551,#552);
#484=CARTESIAN_POINT('',(3.70455647373526E-015,6.15000071000001,-60.49999847));
#485=AXIS2_PLACEMENT_3D('',#553,#554,#555);
#486=CARTESIAN_POINT('',(3.82702115365E-015,6.15000071000001,-62.49999847));
#487=AXIS2_PLACEMENT_3D('',#556,#557,#558);
#488=CARTESIAN_POINT('',(3.84292985196622E-015,6.00000005000001,-62.75980723));
#489=AXIS2_PLACEMENT_3D('',#559,#560,#561);
#490=CARTESIAN_POINT('',(4.59242549680257E-015,9.18485099360515E-015,-75.0));
#491=DIRECTION('',(6.12323399573677E-017,1.22464679914735E-016,-1.0));
#492=DIRECTION('',(-1.23259516440783E-032,1.0,1.22464679914735E-016));
#493=CARTESIAN_POINT('',(-1.53080849893419E-015,-3.06161699786838E-015,25.0));
#494=DIRECTION('',(6.12323399573677E-017,1.22464679914735E-016,-1.0));
#495=DIRECTION('',(-1.23259516440783E-032,1.0,1.22464679914735E-016));
#496=CARTESIAN_POINT('',(-1.22464679914735E-016,-2.44929359829471E-016,2.0));
#497=DIRECTION('',(6.12323399573677E-017,1.22464679914735E-016,-1.0));
#498=DIRECTION('',(-1.23259516440783E-032,1.0,1.22464679914735E-016));
#499=CARTESIAN_POINT('',(0.0,0.0,0.0));
#500=DIRECTION('',(6.12323399573677E-017,1.22464679914735E-016,-1.0));
#501=DIRECTION('',(-1.23259516440783E-032,1.0,1.22464679914735E-016));
#502=CARTESIAN_POINT('',(0.0,0.0,0.0));
#503=DIRECTION('',(6.12323399573677E-017,1.22464679914735E-016,-1.0));
#504=DIRECTION('',(-1.23259516440783E-032,1.0,1.22464679914735E-016));
#505=CARTESIAN_POINT('',(8.95369947972685E-016,1.79073989594537E-015,-14.62250093));
#506=DIRECTION('',(6.12323399573677E-017,1.22464679914735E-016,-1.0));
#507=DIRECTION('',(-1.23259516440783E-032,1.0,1.22464679914735E-016));
#508=CARTESIAN_POINT('',(9.87371481812554E-016,1.97474296362511E-015,-16.125));
#509=DIRECTION('',(6.12323399573677E-017,1.22464679914735E-016,-1.0));
#510=DIRECTION('',(-1.23259516440783E-032,1.0,1.22464679914735E-016));
#511=CARTESIAN_POINT('',(9.87371481812554E-016,1.97474296362511E-015,-16.125));
#512=DIRECTION('',(6.12323399573677E-017,1.22464679914735E-016,-1.0));
#513=DIRECTION('',(-1.23259516440783E-032,1.0,1.22464679914735E-016));
#514=CARTESIAN_POINT('',(1.21699275665268E-015,2.43398551330536E-015,-19.875));
#515=DIRECTION('',(6.12323399573677E-017,1.22464679914735E-016,-1.0));
#516=DIRECTION('',(-1.23259516440783E-032,1.0,1.22464679914735E-016));
#517=CARTESIAN_POINT('',(1.21699275665268E-015,2.43398551330536E-015,-19.875));
#518=DIRECTION('',(6.12323399573677E-017,1.22464679914735E-016,-1.0));
#519=DIRECTION('',(-1.23259516440783E-032,1.0,1.22464679914735E-016));
#520=CARTESIAN_POINT('',(1.30899429049255E-015,2.6179885809851E-015,-21.37749907));
#521=DIRECTION('',(6.12323399573677E-017,1.22464679914735E-016,-1.0));
#522=DIRECTION('',(-1.23259516440783E-032,1.0,1.22464679914735E-016));
#523=CARTESIAN_POINT('',(1.59204083889156E-015,3.18408167778312E-015,-26.0));
#524=DIRECTION('',(6.12323399573677E-017,1.22464679914735E-016,-1.0));
#525=DIRECTION('',(-1.23259516440783E-032,1.0,1.22464679914735E-016));
#526=CARTESIAN_POINT('',(1.59204083889156E-015,3.18408167778312E-015,-26.0));
#527=DIRECTION('',(6.12323399573677E-017,1.22464679914735E-016,-1.0));
#528=DIRECTION('',(-1.23259516440783E-032,1.0,1.22464679914735E-016));
#529=CARTESIAN_POINT('',(1.77573785876366E-015,3.55147571752732E-015,-29.0));
#530=DIRECTION('',(6.12323399573677E-017,1.22464679914735E-016,-1.0));
#531=DIRECTION('',(-1.23259516440783E-032,1.0,1.22464679914735E-016));
#532=CARTESIAN_POINT('',(2.19135631176839E-015,4.38271262353678E-015,-35.787564435625));
#533=DIRECTION('',(6.12323399573677E-017,1.22464679914735E-016,-1.0));
#534=DIRECTION('',(-1.23259516440783E-032,1.0,1.22464679914735E-016));
#535=CARTESIAN_POINT('',(2.2655965784226E-015,4.53119315684521E-015,-37.0));
#536=DIRECTION('',(6.12323399573677E-017,1.22464679914735E-016,-1.0));
#537=DIRECTION('',(-1.23259516440783E-032,1.0,1.22464679914735E-016));
#538=CARTESIAN_POINT('',(2.38806125833734E-015,4.77612251667468E-015,-39.0));
#539=DIRECTION('',(6.12323399573677E-017,1.22464679914735E-016,-1.0));
#540=DIRECTION('',(-1.23259516440783E-032,1.0,1.22464679914735E-016));
#541=CARTESIAN_POINT('',(2.39418449233308E-015,4.78836898466615E-015,-39.1));
#542=DIRECTION('',(6.12323399573677E-017,1.22464679914735E-016,-1.0));
#543=DIRECTION('',(-1.23259516440783E-032,1.0,1.22464679914735E-016));
#544=CARTESIAN_POINT('',(3.63640704850566E-015,7.27281409701133E-015,-59.3870338947927));
#545=DIRECTION('',(6.12323399573677E-017,1.22464679914735E-016,-1.0));
#546=DIRECTION('',(-1.23259516440783E-032,1.0,1.22464679914735E-016));
#547=CARTESIAN_POINT('',(3.66292142661516E-015,7.32584285323032E-015,-59.82004655));
#548=DIRECTION('',(6.12323399573677E-017,1.22464679914735E-016,-1.0));
#549=DIRECTION('',(-1.23259516440783E-032,1.0,1.22464679914735E-016));
#550=CARTESIAN_POINT('',(3.70455647373526E-015,7.40911294747053E-015,-60.49999847));
#551=DIRECTION('',(6.12323399573677E-017,1.22464679914735E-016,-1.0));
#552=DIRECTION('',(-1.23259516440783E-032,1.0,1.22464679914735E-016));
#553=CARTESIAN_POINT('',(3.70455647373526E-015,7.40911294747053E-015,-60.49999847));
#554=DIRECTION('',(6.12323399573677E-017,1.22464679914735E-016,-1.0));
#555=DIRECTION('',(-1.23259516440783E-032,1.0,1.22464679914735E-016));
#556=CARTESIAN_POINT('',(3.82702115365E-015,7.6540423073E-015,-62.49999847));
#557=DIRECTION('',(6.12323399573677E-017,1.22464679914735E-016,-1.0));
#558=DIRECTION('',(-1.23259516440783E-032,1.0,1.22464679914735E-016));
#559=CARTESIAN_POINT('',(3.84292985196622E-015,7.68585970393244E-015,-62.75980723));
#560=DIRECTION('',(6.12323399573677E-017,1.22464679914735E-016,-1.0));
#561=DIRECTION('',(-1.23259516440783E-032,1.0,1.22464679914735E-016));
ENDSEC;
END-ISO-10303-21;
