ISO-10303-21;
HEADER;
FILE_DESCRIPTION((''),'1');
FILE_NAME('//Big_tech03/bigt/Translate/21_\X2\8F2A90ED7DDA\X0\-DXF/01_\X2\30E130AC30C130E330C330AF30B730EA30FC30BA\X0\/01_\X2\30E130AC30DE30A430AF30ED30C130E330C330AF\X0\ MEGA-S/HSK/F 63/HSK-F63-MEGA4S-105.stp','2012-04-24T07:39:35',(''),(''),'Spatial Interop R18','Kubotek KeyCreator V8.5.1 (14335)',' ');
FILE_SCHEMA(('CONFIG_CONTROL_DESIGN'));
ENDSEC;
DATA;
#1=DESIGN_CONTEXT('',#27,'design');
#2=APPLICATION_PROTOCOL_DEFINITION('INTERNATIONAL STANDARD','config_control_design',1994,#27);
#3=PRODUCT_CATEGORY_RELATIONSHIP('NONE','NONE',#28,#29);
#4=DATE_AND_TIME(#30,#31);
#5=DATE_TIME_ROLE('creation_date');
#6=DATE_TIME_ROLE('classification_date');
#7=PERSON_AND_ORGANIZATION_ROLE('creator');
#8=PERSON_AND_ORGANIZATION_ROLE('design_supplier');
#9=PERSON_AND_ORGANIZATION_ROLE('classification_officer');
#10=PERSON_AND_ORGANIZATION_ROLE('design_owner');
#11=APPROVAL_PERSON_ORGANIZATION(#32,#33,#34);
#12=APPROVAL_DATE_TIME(#4,#33);
#13=CC_DESIGN_APPROVAL(#33,(#35,#36,#37));
#14=CC_DESIGN_DATE_AND_TIME_ASSIGNMENT(#4,#5,(#37));
#15=CC_DESIGN_DATE_AND_TIME_ASSIGNMENT(#4,#6,(#35));
#16=CC_DESIGN_PERSON_AND_ORGANIZATION_ASSIGNMENT(#32,#10,(#38));
#17=CC_DESIGN_PERSON_AND_ORGANIZATION_ASSIGNMENT(#32,#7,(#37));
#18=CC_DESIGN_PERSON_AND_ORGANIZATION_ASSIGNMENT(#32,#7,(#36));
#19=CC_DESIGN_PERSON_AND_ORGANIZATION_ASSIGNMENT(#32,#8,(#36));
#20=CC_DESIGN_SECURITY_CLASSIFICATION(#35,(#36));
#21=CC_DESIGN_PERSON_AND_ORGANIZATION_ASSIGNMENT(#32,#9,(#35));
#22=SHAPE_DEFINITION_REPRESENTATION(#39,#40);
#23= (GEOMETRIC_REPRESENTATION_CONTEXT(3)GLOBAL_UNCERTAINTY_ASSIGNED_CONTEXT((#43))GLOBAL_UNIT_ASSIGNED_CONTEXT((#45,#46,#47))REPRESENTATION_CONTEXT('NONE','WORKSPACE'));
#27=APPLICATION_CONTEXT('CONFIGURATION CONTROLLED 3D DESIGNS OF MECHANICAL PARTS AND ASSEMBLIES');
#28=PRODUCT_CATEGORY('part','NONE');
#29=PRODUCT_RELATED_PRODUCT_CATEGORY('detail',' ',(#38));
#30=CALENDAR_DATE(2012,24,3);
#31=LOCAL_TIME(16,39,35.0,#49);
#32=PERSON_AND_ORGANIZATION(#50,#51);
#33=APPROVAL(#52,'SOLID MODEL');
#34=APPROVAL_ROLE('APPROVED');
#35=SECURITY_CLASSIFICATION('','',#53);
#36=PRODUCT_DEFINITION_FORMATION_WITH_SPECIFIED_SOURCE(' ','NONE',#38,.NOT_KNOWN.);
#37=PRODUCT_DEFINITION('NONE','NONE',#36,#1);
#38=PRODUCT('1','1','PART-1-DESC',(#54));
#39=PRODUCT_DEFINITION_SHAPE('NONE','NONE',#37);
#40=ADVANCED_BREP_SHAPE_REPRESENTATION('1',(#55,#56),#23);
#43=UNCERTAINTY_MEASURE_WITH_UNIT(LENGTH_MEASURE(1.0E-006),#45,'','');
#45= (CONVERSION_BASED_UNIT('MILLIMETRE',#59)LENGTH_UNIT()NAMED_UNIT(#62));
#46= (NAMED_UNIT(#64)PLANE_ANGLE_UNIT()SI_UNIT($,.RADIAN.));
#47= (NAMED_UNIT(#64)SOLID_ANGLE_UNIT()SI_UNIT($,.STERADIAN.));
#49=COORDINATED_UNIVERSAL_TIME_OFFSET(9,0,.AHEAD.);
#50=PERSON('','UNSPECIFIED',$,$,$,$);
#51=ORGANIZATION('UNSPECIFIED','UNSPECIFIED','UNSPECIFIED');
#52=APPROVAL_STATUS('approved');
#53=SECURITY_CLASSIFICATION_LEVEL('unclassified');
#54=MECHANICAL_CONTEXT('',#27,'mechanical');
#55=MANIFOLD_SOLID_BREP('1',#70);
#56=AXIS2_PLACEMENT_3D('',#71,#72,#73);
#59=LENGTH_MEASURE_WITH_UNIT(LENGTH_MEASURE(1.0),#74);
#62=DIMENSIONAL_EXPONENTS(1.0,0.0,0.0,0.0,0.0,0.0,0.0);
#64=DIMENSIONAL_EXPONENTS(0.0,0.0,0.0,0.0,0.0,0.0,0.0);
#70=CLOSED_SHELL('',(#75,#76,#77,#78,#79,#80,#81,#82,#83,#84,#85,#86,#87,#88,#89,#90,#91,#92,#93,#94,#95,#96,#97,#98,#99));
#71=CARTESIAN_POINT('',(0.0,0.0,0.0));
#72=DIRECTION('',(0.0,0.0,1.0));
#73=DIRECTION('',(1.0,0.0,0.0));
#74= (NAMED_UNIT(#62)LENGTH_UNIT()SI_UNIT(.MILLI.,.METRE.));
#75=ADVANCED_FACE('',(#101,#102),#103,.T.);
#76=ADVANCED_FACE('',(#104,#105),#106,.T.);
#77=ADVANCED_FACE('',(#107,#108),#109,.T.);
#78=ADVANCED_FACE('',(#110,#111),#112,.T.);
#79=ADVANCED_FACE('',(#113,#114),#115,.T.);
#80=ADVANCED_FACE('',(#116,#117),#118,.T.);
#81=ADVANCED_FACE('',(#119),#120,.T.);
#82=ADVANCED_FACE('',(#121,#122),#123,.T.);
#83=ADVANCED_FACE('',(#124,#125),#126,.T.);
#84=ADVANCED_FACE('',(#127,#128),#129,.T.);
#85=ADVANCED_FACE('',(#130,#131),#132,.T.);
#86=ADVANCED_FACE('',(#133,#134),#135,.T.);
#87=ADVANCED_FACE('',(#136),#137,.T.);
#88=ADVANCED_FACE('',(#138,#139),#140,.T.);
#89=ADVANCED_FACE('',(#141,#142),#143,.T.);
#90=ADVANCED_FACE('',(#144,#145),#146,.T.);
#91=ADVANCED_FACE('',(#147,#148),#149,.T.);
#92=ADVANCED_FACE('',(#150,#151),#152,.T.);
#93=ADVANCED_FACE('',(#153,#154),#155,.T.);
#94=ADVANCED_FACE('',(#156,#157),#158,.T.);
#95=ADVANCED_FACE('',(#159,#160),#161,.T.);
#96=ADVANCED_FACE('',(#162,#163),#164,.T.);
#97=ADVANCED_FACE('',(#165,#166),#167,.T.);
#98=ADVANCED_FACE('',(#168,#169),#170,.T.);
#99=ADVANCED_FACE('',(#171,#172),#173,.T.);
#101=FACE_BOUND('',#174,.T.);
#102=FACE_BOUND('',#175,.T.);
#103=CONICAL_SURFACE('',#176,5.62500005,1.04719754014648);
#104=FACE_BOUND('',#177,.T.);
#105=FACE_BOUND('',#178,.T.);
#106=CYLINDRICAL_SURFACE('',#179,5.2500001);
#107=FACE_OUTER_BOUND('',#180,.T.);
#108=FACE_BOUND('',#181,.T.);
#109=PLANE('',#182);
#110=FACE_BOUND('',#183,.T.);
#111=FACE_BOUND('',#184,.T.);
#112=CYLINDRICAL_SURFACE('',#185,6.15000071);
#113=FACE_BOUND('',#186,.T.);
#114=FACE_BOUND('',#187,.T.);
#115=CONICAL_SURFACE('',#188,6.07500038,0.523598782746356);
#116=FACE_BOUND('',#189,.T.);
#117=FACE_BOUND('',#190,.T.);
#118=CYLINDRICAL_SURFACE('',#191,6.00000005);
#119=FACE_OUTER_BOUND('',#192,.T.);
#120=PLANE('',#193);
#121=FACE_BOUND('',#194,.T.);
#122=FACE_BOUND('',#195,.T.);
#123=CYLINDRICAL_SURFACE('',#196,6.0);
#124=FACE_BOUND('',#197,.T.);
#125=FACE_BOUND('',#198,.T.);
#126=CONICAL_SURFACE('',#199,6.95,1.04719755152632);
#127=FACE_BOUND('',#200,.T.);
#128=FACE_BOUND('',#201,.T.);
#129=CYLINDRICAL_SURFACE('',#202,5.9);
#130=FACE_BOUND('',#203,.T.);
#131=FACE_BOUND('',#204,.T.);
#132=CONICAL_SURFACE('',#205,5.95,0.785398163397439);
#133=FACE_BOUND('',#206,.T.);
#134=FACE_BOUND('',#207,.T.);
#135=CYLINDRICAL_SURFACE('',#208,8.0);
#136=FACE_OUTER_BOUND('',#209,.T.);
#137=PLANE('',#210);
#138=FACE_BOUND('',#211,.T.);
#139=FACE_BOUND('',#212,.T.);
#140=CONICAL_SURFACE('',#213,18.5750000005215,0.049958395676703);
#141=FACE_BOUND('',#214,.T.);
#142=FACE_BOUND('',#215,.T.);
#143=CYLINDRICAL_SURFACE('',#216,19.15);
#144=FACE_OUTER_BOUND('',#217,.T.);
#145=FACE_BOUND('',#218,.T.);
#146=PLANE('',#219);
#147=FACE_BOUND('',#220,.T.);
#148=FACE_BOUND('',#221,.T.);
#149=CYLINDRICAL_SURFACE('',#222,31.5);
#150=FACE_BOUND('',#223,.T.);
#151=FACE_BOUND('',#224,.T.);
#152=CONICAL_SURFACE('',#225,30.19879763,1.04719755326565);
#153=FACE_BOUND('',#226,.T.);
#154=FACE_OUTER_BOUND('',#227,.T.);
#155=PLANE('',#228);
#156=FACE_BOUND('',#229,.T.);
#157=FACE_BOUND('',#230,.T.);
#158=CYLINDRICAL_SURFACE('',#231,27.5);
#159=FACE_OUTER_BOUND('',#232,.T.);
#160=FACE_BOUND('',#233,.T.);
#161=PLANE('',#234);
#162=FACE_BOUND('',#235,.T.);
#163=FACE_BOUND('',#236,.T.);
#164=CONICAL_SURFACE('',#237,30.19879763,1.04719755326565);
#165=FACE_BOUND('',#238,.T.);
#166=FACE_BOUND('',#239,.T.);
#167=CYLINDRICAL_SURFACE('',#240,31.5);
#168=FACE_BOUND('',#241,.T.);
#169=FACE_OUTER_BOUND('',#242,.T.);
#170=PLANE('',#243);
#171=FACE_BOUND('',#244,.T.);
#172=FACE_BOUND('',#245,.T.);
#173=CONICAL_SURFACE('',#246,9.5,0.785398163397448);
#174=EDGE_LOOP('',(#247));
#175=EDGE_LOOP('',(#248));
#176=AXIS2_PLACEMENT_3D('',#249,#250,#251);
#177=EDGE_LOOP('',(#252));
#178=EDGE_LOOP('',(#253));
#179=AXIS2_PLACEMENT_3D('',#254,#255,#256);
#180=EDGE_LOOP('',(#257));
#181=EDGE_LOOP('',(#258));
#182=AXIS2_PLACEMENT_3D('',#259,#260,#261);
#183=EDGE_LOOP('',(#262));
#184=EDGE_LOOP('',(#263));
#185=AXIS2_PLACEMENT_3D('',#264,#265,#266);
#186=EDGE_LOOP('',(#267));
#187=EDGE_LOOP('',(#268));
#188=AXIS2_PLACEMENT_3D('',#269,#270,#271);
#189=EDGE_LOOP('',(#272));
#190=EDGE_LOOP('',(#273));
#191=AXIS2_PLACEMENT_3D('',#274,#275,#276);
#192=EDGE_LOOP('',(#277));
#193=AXIS2_PLACEMENT_3D('',#278,#279,#280);
#194=EDGE_LOOP('',(#281));
#195=EDGE_LOOP('',(#282));
#196=AXIS2_PLACEMENT_3D('',#283,#284,#285);
#197=EDGE_LOOP('',(#286));
#198=EDGE_LOOP('',(#287));
#199=AXIS2_PLACEMENT_3D('',#288,#289,#290);
#200=EDGE_LOOP('',(#291));
#201=EDGE_LOOP('',(#292));
#202=AXIS2_PLACEMENT_3D('',#293,#294,#295);
#203=EDGE_LOOP('',(#296));
#204=EDGE_LOOP('',(#297));
#205=AXIS2_PLACEMENT_3D('',#298,#299,#300);
#206=EDGE_LOOP('',(#301));
#207=EDGE_LOOP('',(#302));
#208=AXIS2_PLACEMENT_3D('',#303,#304,#305);
#209=EDGE_LOOP('',(#306));
#210=AXIS2_PLACEMENT_3D('',#307,#308,#309);
#211=EDGE_LOOP('',(#310));
#212=EDGE_LOOP('',(#311));
#213=AXIS2_PLACEMENT_3D('',#312,#313,#314);
#214=EDGE_LOOP('',(#315));
#215=EDGE_LOOP('',(#316));
#216=AXIS2_PLACEMENT_3D('',#317,#318,#319);
#217=EDGE_LOOP('',(#320));
#218=EDGE_LOOP('',(#321));
#219=AXIS2_PLACEMENT_3D('',#322,#323,#324);
#220=EDGE_LOOP('',(#325));
#221=EDGE_LOOP('',(#326));
#222=AXIS2_PLACEMENT_3D('',#327,#328,#329);
#223=EDGE_LOOP('',(#330));
#224=EDGE_LOOP('',(#331));
#225=AXIS2_PLACEMENT_3D('',#332,#333,#334);
#226=EDGE_LOOP('',(#335));
#227=EDGE_LOOP('',(#336));
#228=AXIS2_PLACEMENT_3D('',#337,#338,#339);
#229=EDGE_LOOP('',(#340));
#230=EDGE_LOOP('',(#341));
#231=AXIS2_PLACEMENT_3D('',#342,#343,#344);
#232=EDGE_LOOP('',(#345));
#233=EDGE_LOOP('',(#346));
#234=AXIS2_PLACEMENT_3D('',#347,#348,#349);
#235=EDGE_LOOP('',(#350));
#236=EDGE_LOOP('',(#351));
#237=AXIS2_PLACEMENT_3D('',#352,#353,#354);
#238=EDGE_LOOP('',(#355));
#239=EDGE_LOOP('',(#356));
#240=AXIS2_PLACEMENT_3D('',#357,#358,#359);
#241=EDGE_LOOP('',(#360));
#242=EDGE_LOOP('',(#361));
#243=AXIS2_PLACEMENT_3D('',#362,#363,#364);
#244=EDGE_LOOP('',(#365));
#245=EDGE_LOOP('',(#366));
#246=AXIS2_PLACEMENT_3D('',#367,#368,#369);
#247=ORIENTED_EDGE('',*,*,#370,.F.);
#248=ORIENTED_EDGE('',*,*,#371,.T.);
#249=CARTESIAN_POINT('',(5.48663443628144E-015,1.09732688725629E-014,-89.6035402223963));
#250=DIRECTION('',(-6.12323399573677E-017,-1.22464679914735E-016,1.0));
#251=DIRECTION('',(-1.23259516440783E-032,1.0,1.22464679914735E-016));
#252=ORIENTED_EDGE('',*,*,#372,.F.);
#253=ORIENTED_EDGE('',*,*,#370,.T.);
#254=CARTESIAN_POINT('',(5.52070914889624E-015,1.10414182977925E-014,-90.16002251));
#255=DIRECTION('',(-6.12323399573677E-017,-1.22464679914735E-016,1.0));
#256=DIRECTION('',(-1.23259516440783E-032,1.0,1.22464679914735E-016));
#257=ORIENTED_EDGE('',*,*,#373,.F.);
#258=ORIENTED_EDGE('',*,*,#372,.T.);
#259=CARTESIAN_POINT('',(5.54152667245629E-015,5.70000040500001,-90.49999847));
#260=DIRECTION('',(-6.12323399573677E-017,-1.22464679914735E-016,1.0));
#261=DIRECTION('',(1.23259516440783E-032,-1.0,-1.22464679914735E-016));
#262=ORIENTED_EDGE('',*,*,#374,.F.);
#263=ORIENTED_EDGE('',*,*,#373,.T.);
#264=CARTESIAN_POINT('',(5.60275901241366E-015,1.12055180248273E-014,-91.49999847));
#265=DIRECTION('',(-6.12323399573677E-017,-1.22464679914735E-016,1.0));
#266=DIRECTION('',(-1.23259516440783E-032,1.0,1.22464679914735E-016));
#267=ORIENTED_EDGE('',*,*,#375,.F.);
#268=ORIENTED_EDGE('',*,*,#374,.T.);
#269=CARTESIAN_POINT('',(5.67194570152914E-015,1.13438914030583E-014,-92.62990285));
#270=DIRECTION('',(-6.12323399573677E-017,-1.22464679914735E-016,1.0));
#271=DIRECTION('',(-1.23259516440783E-032,1.0,1.22464679914735E-016));
#272=ORIENTED_EDGE('',*,*,#376,.F.);
#273=ORIENTED_EDGE('',*,*,#375,.T.);
#274=CARTESIAN_POINT('',(6.05464787310543E-015,1.21092957462109E-014,-98.879903615));
#275=DIRECTION('',(-6.12323399573677E-017,-1.22464679914735E-016,1.0));
#276=DIRECTION('',(-1.23259516440783E-032,1.0,1.22464679914735E-016));
#277=ORIENTED_EDGE('',*,*,#376,.T.);
#278=CARTESIAN_POINT('',(6.4293956955236E-015,3.00000002500001,-105.0));
#279=DIRECTION('',(6.12323399573677E-017,1.22464679914735E-016,-1.0));
#280=DIRECTION('',(-1.23259516440783E-032,1.0,1.22464679914735E-016));
#281=ORIENTED_EDGE('',*,*,#371,.F.);
#282=ORIENTED_EDGE('',*,*,#377,.T.);
#283=CARTESIAN_POINT('',(3.93378086977988E-015,7.86756173955977E-015,-64.2435169473963));
#284=DIRECTION('',(-6.12323399573677E-017,-1.22464679914735E-016,1.0));
#285=DIRECTION('',(-1.23259516440783E-032,1.0,1.22464679914735E-016));
#286=ORIENTED_EDGE('',*,*,#378,.F.);
#287=ORIENTED_EDGE('',*,*,#379,.T.);
#288=CARTESIAN_POINT('',(2.2284764450955E-015,4.45695289019099E-015,-36.3937822178125));
#289=DIRECTION('',(-6.12323399573677E-017,-1.22464679914735E-016,1.0));
#290=DIRECTION('',(-1.23259516440783E-032,1.0,1.22464679914735E-016));
#291=ORIENTED_EDGE('',*,*,#380,.F.);
#292=ORIENTED_EDGE('',*,*,#378,.T.);
#293=CARTESIAN_POINT('',(2.32682891837997E-015,4.65365783675994E-015,-38.0));
#294=DIRECTION('',(-6.12323399573677E-017,-1.22464679914735E-016,1.0));
#295=DIRECTION('',(-1.23259516440783E-032,1.0,1.22464679914735E-016));
#296=ORIENTED_EDGE('',*,*,#377,.F.);
#297=ORIENTED_EDGE('',*,*,#380,.T.);
#298=CARTESIAN_POINT('',(2.39112287533521E-015,4.78224575067041E-015,-39.05));
#299=DIRECTION('',(6.12323399573677E-017,1.22464679914735E-016,-1.0));
#300=DIRECTION('',(-1.23259516440783E-032,1.0,1.22464679914735E-016));
#301=ORIENTED_EDGE('',*,*,#379,.F.);
#302=ORIENTED_EDGE('',*,*,#381,.T.);
#303=CARTESIAN_POINT('',(1.98354708526603E-015,3.96709417053205E-015,-32.3937822178125));
#304=DIRECTION('',(-6.12323399573677E-017,-1.22464679914735E-016,1.0));
#305=DIRECTION('',(-1.23259516440783E-032,1.0,1.22464679914735E-016));
#306=ORIENTED_EDGE('',*,*,#382,.F.);
#307=CARTESIAN_POINT('',(-1.53080849893419E-015,9.00000000052154,25.0));
#308=DIRECTION('',(-6.12323399573677E-017,-1.22464679914735E-016,1.0));
#309=DIRECTION('',(1.23259516440783E-032,-1.0,-1.22464679914735E-016));
#310=ORIENTED_EDGE('',*,*,#383,.F.);
#311=ORIENTED_EDGE('',*,*,#382,.T.);
#312=CARTESIAN_POINT('',(-8.26636589424463E-016,-1.65327317884893E-015,13.5));
#313=DIRECTION('',(6.12323399573677E-017,1.22464679914735E-016,-1.0));
#314=DIRECTION('',(-1.23259516440783E-032,1.0,1.22464679914735E-016));
#315=ORIENTED_EDGE('',*,*,#384,.F.);
#316=ORIENTED_EDGE('',*,*,#383,.T.);
#317=CARTESIAN_POINT('',(-6.12323399573677E-017,-1.22464679914735E-016,1.0));
#318=DIRECTION('',(-6.12323399573677E-017,-1.22464679914735E-016,1.0));
#319=DIRECTION('',(-1.23259516440783E-032,1.0,1.22464679914735E-016));
#320=ORIENTED_EDGE('',*,*,#385,.F.);
#321=ORIENTED_EDGE('',*,*,#384,.T.);
#322=CARTESIAN_POINT('',(-3.12154725386283E-031,25.325,3.10141801884067E-015));
#323=DIRECTION('',(-6.12323399573677E-017,-1.22464679914735E-016,1.0));
#324=DIRECTION('',(1.23259516440783E-032,-1.0,-1.22464679914735E-016));
#325=ORIENTED_EDGE('',*,*,#386,.F.);
#326=ORIENTED_EDGE('',*,*,#385,.T.);
#327=CARTESIAN_POINT('',(4.47684973986342E-016,8.95369947972685E-016,-7.311250465));
#328=DIRECTION('',(-6.12323399573677E-017,-1.22464679914735E-016,1.0));
#329=DIRECTION('',(-1.23259516440783E-032,1.0,1.22464679914735E-016));
#330=ORIENTED_EDGE('',*,*,#387,.F.);
#331=ORIENTED_EDGE('',*,*,#386,.T.);
#332=CARTESIAN_POINT('',(9.41370714892619E-016,1.88274142978524E-015,-15.373750465));
#333=DIRECTION('',(-6.12323399573677E-017,-1.22464679914735E-016,1.0));
#334=DIRECTION('',(-1.23259516440783E-032,1.0,1.22464679914735E-016));
#335=ORIENTED_EDGE('',*,*,#388,.F.);
#336=ORIENTED_EDGE('',*,*,#387,.T.);
#337=CARTESIAN_POINT('',(9.87371481812553E-016,28.19879763,-16.125));
#338=DIRECTION('',(6.12323399573677E-017,1.22464679914735E-016,-1.0));
#339=DIRECTION('',(-1.23259516440783E-032,1.0,1.22464679914735E-016));
#340=ORIENTED_EDGE('',*,*,#389,.F.);
#341=ORIENTED_EDGE('',*,*,#388,.T.);
#342=CARTESIAN_POINT('',(1.10218211923262E-015,2.20436423846524E-015,-18.0));
#343=DIRECTION('',(-6.12323399573677E-017,-1.22464679914735E-016,1.0));
#344=DIRECTION('',(-1.23259516440783E-032,1.0,1.22464679914735E-016));
#345=ORIENTED_EDGE('',*,*,#390,.F.);
#346=ORIENTED_EDGE('',*,*,#389,.T.);
#347=CARTESIAN_POINT('',(1.21699275665268E-015,28.19879763,-19.875));
#348=DIRECTION('',(-6.12323399573677E-017,-1.22464679914735E-016,1.0));
#349=DIRECTION('',(1.23259516440783E-032,-1.0,-1.22464679914735E-016));
#350=ORIENTED_EDGE('',*,*,#391,.F.);
#351=ORIENTED_EDGE('',*,*,#390,.T.);
#352=CARTESIAN_POINT('',(1.26299352357262E-015,2.52598704714523E-015,-20.626249535));
#353=DIRECTION('',(6.12323399573677E-017,1.22464679914735E-016,-1.0));
#354=DIRECTION('',(-1.23259516440783E-032,1.0,1.22464679914735E-016));
#355=ORIENTED_EDGE('',*,*,#392,.F.);
#356=ORIENTED_EDGE('',*,*,#391,.T.);
#357=CARTESIAN_POINT('',(1.45051756469206E-015,2.90103512938411E-015,-23.688749535));
#358=DIRECTION('',(-6.12323399573677E-017,-1.22464679914735E-016,1.0));
#359=DIRECTION('',(-1.23259516440783E-032,1.0,1.22464679914735E-016));
#360=ORIENTED_EDGE('',*,*,#393,.F.);
#361=ORIENTED_EDGE('',*,*,#392,.T.);
#362=CARTESIAN_POINT('',(1.59204083889156E-015,21.25,-26.0));
#363=DIRECTION('',(6.12323399573677E-017,1.22464679914735E-016,-1.0));
#364=DIRECTION('',(-1.23259516440783E-032,1.0,1.22464679914735E-016));
#365=ORIENTED_EDGE('',*,*,#381,.F.);
#366=ORIENTED_EDGE('',*,*,#393,.T.);
#367=CARTESIAN_POINT('',(1.68388934882761E-015,3.36777869765522E-015,-27.5));
#368=DIRECTION('',(-6.12323399573677E-017,-1.22464679914735E-016,1.0));
#369=DIRECTION('',(-1.23259516440783E-032,1.0,1.22464679914735E-016));
#370=EDGE_CURVE('',#394,#394,#395,.T.);
#371=EDGE_CURVE('',#396,#396,#397,.T.);
#372=EDGE_CURVE('',#398,#398,#399,.T.);
#373=EDGE_CURVE('',#400,#400,#401,.T.);
#374=EDGE_CURVE('',#402,#402,#403,.T.);
#375=EDGE_CURVE('',#404,#404,#405,.T.);
#376=EDGE_CURVE('',#406,#406,#407,.T.);
#377=EDGE_CURVE('',#408,#408,#409,.T.);
#378=EDGE_CURVE('',#410,#410,#411,.T.);
#379=EDGE_CURVE('',#412,#412,#413,.T.);
#380=EDGE_CURVE('',#414,#414,#415,.T.);
#381=EDGE_CURVE('',#416,#416,#417,.T.);
#382=EDGE_CURVE('',#418,#418,#419,.T.);
#383=EDGE_CURVE('',#420,#420,#421,.T.);
#384=EDGE_CURVE('',#422,#422,#423,.T.);
#385=EDGE_CURVE('',#424,#424,#425,.T.);
#386=EDGE_CURVE('',#426,#426,#427,.T.);
#387=EDGE_CURVE('',#428,#428,#429,.T.);
#388=EDGE_CURVE('',#430,#430,#431,.T.);
#389=EDGE_CURVE('',#432,#432,#433,.T.);
#390=EDGE_CURVE('',#434,#434,#435,.T.);
#391=EDGE_CURVE('',#436,#436,#437,.T.);
#392=EDGE_CURVE('',#438,#438,#439,.T.);
#393=EDGE_CURVE('',#440,#440,#441,.T.);
#394=VERTEX_POINT('',#442);
#395=CIRCLE('',#443,5.2500001);
#396=VERTEX_POINT('',#444);
#397=CIRCLE('',#445,6.0);
#398=VERTEX_POINT('',#446);
#399=CIRCLE('',#447,5.2500001);
#400=VERTEX_POINT('',#448);
#401=CIRCLE('',#449,6.15000071);
#402=VERTEX_POINT('',#450);
#403=CIRCLE('',#451,6.15000071);
#404=VERTEX_POINT('',#452);
#405=CIRCLE('',#453,6.00000005);
#406=VERTEX_POINT('',#454);
#407=CIRCLE('',#455,6.00000005);
#408=VERTEX_POINT('',#456);
#409=CIRCLE('',#457,6.0);
#410=VERTEX_POINT('',#458);
#411=CIRCLE('',#459,5.9);
#412=VERTEX_POINT('',#460);
#413=CIRCLE('',#461,8.0);
#414=VERTEX_POINT('',#462);
#415=CIRCLE('',#463,5.9);
#416=VERTEX_POINT('',#464);
#417=CIRCLE('',#465,8.0);
#418=VERTEX_POINT('',#466);
#419=CIRCLE('',#467,18.0000000010431);
#420=VERTEX_POINT('',#468);
#421=CIRCLE('',#469,19.15);
#422=VERTEX_POINT('',#470);
#423=CIRCLE('',#471,19.15);
#424=VERTEX_POINT('',#472);
#425=CIRCLE('',#473,31.5);
#426=VERTEX_POINT('',#474);
#427=CIRCLE('',#475,31.5);
#428=VERTEX_POINT('',#476);
#429=CIRCLE('',#477,28.89759526);
#430=VERTEX_POINT('',#478);
#431=CIRCLE('',#479,27.5);
#432=VERTEX_POINT('',#480);
#433=CIRCLE('',#481,27.5);
#434=VERTEX_POINT('',#482);
#435=CIRCLE('',#483,28.89759526);
#436=VERTEX_POINT('',#484);
#437=CIRCLE('',#485,31.5);
#438=VERTEX_POINT('',#486);
#439=CIRCLE('',#487,31.5);
#440=VERTEX_POINT('',#488);
#441=CIRCLE('',#489,11.0);
#442=CARTESIAN_POINT('',(5.49989162533619E-015,5.25000010000001,-89.82004655));
#443=AXIS2_PLACEMENT_3D('',#490,#491,#492);
#444=CARTESIAN_POINT('',(5.47337724722669E-015,6.00000000000001,-89.3870338947927));
#445=AXIS2_PLACEMENT_3D('',#493,#494,#495);
#446=CARTESIAN_POINT('',(5.54152667245629E-015,5.25000010000001,-90.49999847));
#447=AXIS2_PLACEMENT_3D('',#496,#497,#498);
#448=CARTESIAN_POINT('',(5.54152667245629E-015,6.15000071000001,-90.49999847));
#449=AXIS2_PLACEMENT_3D('',#499,#500,#501);
#450=CARTESIAN_POINT('',(5.66399135237103E-015,6.15000071000001,-92.49999847));
#451=AXIS2_PLACEMENT_3D('',#502,#503,#504);
#452=CARTESIAN_POINT('',(5.67990005068725E-015,6.00000005000001,-92.75980723));
#453=AXIS2_PLACEMENT_3D('',#505,#506,#507);
#454=CARTESIAN_POINT('',(6.4293956955236E-015,6.00000005000001,-105.0));
#455=AXIS2_PLACEMENT_3D('',#508,#509,#510);
#456=CARTESIAN_POINT('',(2.39418449233308E-015,6.0,-39.1));
#457=AXIS2_PLACEMENT_3D('',#511,#512,#513);
#458=CARTESIAN_POINT('',(2.2655965784226E-015,5.9,-37.0));
#459=AXIS2_PLACEMENT_3D('',#514,#515,#516);
#460=CARTESIAN_POINT('',(2.19135631176839E-015,8.0,-35.787564435625));
#461=AXIS2_PLACEMENT_3D('',#517,#518,#519);
#462=CARTESIAN_POINT('',(2.38806125833734E-015,5.9,-39.0));
#463=AXIS2_PLACEMENT_3D('',#520,#521,#522);
#464=CARTESIAN_POINT('',(1.77573785876366E-015,8.0,-29.0));
#465=AXIS2_PLACEMENT_3D('',#523,#524,#525);
#466=CARTESIAN_POINT('',(-1.53080849893419E-015,18.0000000010431,25.0));
#467=AXIS2_PLACEMENT_3D('',#526,#527,#528);
#468=CARTESIAN_POINT('',(-1.22464679914736E-016,19.15,2.0));
#469=AXIS2_PLACEMENT_3D('',#529,#530,#531);
#470=CARTESIAN_POINT('',(-2.360419739841E-031,19.15,2.34519862036718E-015));
#471=AXIS2_PLACEMENT_3D('',#532,#533,#534);
#472=CARTESIAN_POINT('',(-3.88267476788467E-031,31.5,3.85763741731416E-015));
#473=AXIS2_PLACEMENT_3D('',#535,#536,#537);
#474=CARTESIAN_POINT('',(8.95369947972684E-016,31.5,-14.62250093));
#475=AXIS2_PLACEMENT_3D('',#538,#539,#540);
#476=CARTESIAN_POINT('',(9.87371481812553E-016,28.89759526,-16.125));
#477=AXIS2_PLACEMENT_3D('',#541,#542,#543);
#478=CARTESIAN_POINT('',(9.87371481812553E-016,27.5,-16.125));
#479=AXIS2_PLACEMENT_3D('',#544,#545,#546);
#480=CARTESIAN_POINT('',(1.21699275665268E-015,27.5,-19.875));
#481=AXIS2_PLACEMENT_3D('',#547,#548,#549);
#482=CARTESIAN_POINT('',(1.21699275665268E-015,28.89759526,-19.875));
#483=AXIS2_PLACEMENT_3D('',#550,#551,#552);
#484=CARTESIAN_POINT('',(1.30899429049255E-015,31.5,-21.37749907));
#485=AXIS2_PLACEMENT_3D('',#553,#554,#555);
#486=CARTESIAN_POINT('',(1.59204083889156E-015,31.5,-26.0));
#487=AXIS2_PLACEMENT_3D('',#556,#557,#558);
#488=CARTESIAN_POINT('',(1.59204083889156E-015,11.0,-26.0));
#489=AXIS2_PLACEMENT_3D('',#559,#560,#561);
#490=CARTESIAN_POINT('',(5.49989162533619E-015,1.09997832506724E-014,-89.82004655));
#491=DIRECTION('',(6.12323399573677E-017,1.22464679914735E-016,-1.0));
#492=DIRECTION('',(-1.23259516440783E-032,1.0,1.22464679914735E-016));
#493=CARTESIAN_POINT('',(5.47337724722669E-015,1.09467544944534E-014,-89.3870338947927));
#494=DIRECTION('',(6.12323399573677E-017,1.22464679914735E-016,-1.0));
#495=DIRECTION('',(-1.23259516440783E-032,1.0,1.22464679914735E-016));
#496=CARTESIAN_POINT('',(5.54152667245629E-015,1.10830533449126E-014,-90.49999847));
#497=DIRECTION('',(6.12323399573677E-017,1.22464679914735E-016,-1.0));
#498=DIRECTION('',(-1.23259516440783E-032,1.0,1.22464679914735E-016));
#499=CARTESIAN_POINT('',(5.54152667245629E-015,1.10830533449126E-014,-90.49999847));
#500=DIRECTION('',(6.12323399573677E-017,1.22464679914735E-016,-1.0));
#501=DIRECTION('',(-1.23259516440783E-032,1.0,1.22464679914735E-016));
#502=CARTESIAN_POINT('',(5.66399135237103E-015,1.13279827047421E-014,-92.49999847));
#503=DIRECTION('',(6.12323399573677E-017,1.22464679914735E-016,-1.0));
#504=DIRECTION('',(-1.23259516440783E-032,1.0,1.22464679914735E-016));
#505=CARTESIAN_POINT('',(5.67990005068725E-015,1.13598001013745E-014,-92.75980723));
#506=DIRECTION('',(6.12323399573677E-017,1.22464679914735E-016,-1.0));
#507=DIRECTION('',(-1.23259516440783E-032,1.0,1.22464679914735E-016));
#508=CARTESIAN_POINT('',(6.4293956955236E-015,1.28587913910472E-014,-105.0));
#509=DIRECTION('',(6.12323399573677E-017,1.22464679914735E-016,-1.0));
#510=DIRECTION('',(-1.23259516440783E-032,1.0,1.22464679914735E-016));
#511=CARTESIAN_POINT('',(2.39418449233308E-015,4.78836898466615E-015,-39.1));
#512=DIRECTION('',(6.12323399573677E-017,1.22464679914735E-016,-1.0));
#513=DIRECTION('',(-1.23259516440783E-032,1.0,1.22464679914735E-016));
#514=CARTESIAN_POINT('',(2.2655965784226E-015,4.53119315684521E-015,-37.0));
#515=DIRECTION('',(6.12323399573677E-017,1.22464679914735E-016,-1.0));
#516=DIRECTION('',(-1.23259516440783E-032,1.0,1.22464679914735E-016));
#517=CARTESIAN_POINT('',(2.19135631176839E-015,4.38271262353678E-015,-35.787564435625));
#518=DIRECTION('',(6.12323399573677E-017,1.22464679914735E-016,-1.0));
#519=DIRECTION('',(-1.23259516440783E-032,1.0,1.22464679914735E-016));
#520=CARTESIAN_POINT('',(2.38806125833734E-015,4.77612251667468E-015,-39.0));
#521=DIRECTION('',(6.12323399573677E-017,1.22464679914735E-016,-1.0));
#522=DIRECTION('',(-1.23259516440783E-032,1.0,1.22464679914735E-016));
#523=CARTESIAN_POINT('',(1.77573785876366E-015,3.55147571752732E-015,-29.0));
#524=DIRECTION('',(6.12323399573677E-017,1.22464679914735E-016,-1.0));
#525=DIRECTION('',(-1.23259516440783E-032,1.0,1.22464679914735E-016));
#526=CARTESIAN_POINT('',(-1.53080849893419E-015,-3.06161699786838E-015,25.0));
#527=DIRECTION('',(6.12323399573677E-017,1.22464679914735E-016,-1.0));
#528=DIRECTION('',(-1.23259516440783E-032,1.0,1.22464679914735E-016));
#529=CARTESIAN_POINT('',(-1.22464679914735E-016,-2.44929359829471E-016,2.0));
#530=DIRECTION('',(6.12323399573677E-017,1.22464679914735E-016,-1.0));
#531=DIRECTION('',(-1.23259516440783E-032,1.0,1.22464679914735E-016));
#532=CARTESIAN_POINT('',(0.0,0.0,0.0));
#533=DIRECTION('',(6.12323399573677E-017,1.22464679914735E-016,-1.0));
#534=DIRECTION('',(-1.23259516440783E-032,1.0,1.22464679914735E-016));
#535=CARTESIAN_POINT('',(0.0,0.0,0.0));
#536=DIRECTION('',(6.12323399573677E-017,1.22464679914735E-016,-1.0));
#537=DIRECTION('',(-1.23259516440783E-032,1.0,1.22464679914735E-016));
#538=CARTESIAN_POINT('',(8.95369947972685E-016,1.79073989594537E-015,-14.62250093));
#539=DIRECTION('',(6.12323399573677E-017,1.22464679914735E-016,-1.0));
#540=DIRECTION('',(-1.23259516440783E-032,1.0,1.22464679914735E-016));
#541=CARTESIAN_POINT('',(9.87371481812554E-016,1.97474296362511E-015,-16.125));
#542=DIRECTION('',(6.12323399573677E-017,1.22464679914735E-016,-1.0));
#543=DIRECTION('',(-1.23259516440783E-032,1.0,1.22464679914735E-016));
#544=CARTESIAN_POINT('',(9.87371481812554E-016,1.97474296362511E-015,-16.125));
#545=DIRECTION('',(6.12323399573677E-017,1.22464679914735E-016,-1.0));
#546=DIRECTION('',(-1.23259516440783E-032,1.0,1.22464679914735E-016));
#547=CARTESIAN_POINT('',(1.21699275665268E-015,2.43398551330536E-015,-19.875));
#548=DIRECTION('',(6.12323399573677E-017,1.22464679914735E-016,-1.0));
#549=DIRECTION('',(-1.23259516440783E-032,1.0,1.22464679914735E-016));
#550=CARTESIAN_POINT('',(1.21699275665268E-015,2.43398551330536E-015,-19.875));
#551=DIRECTION('',(6.12323399573677E-017,1.22464679914735E-016,-1.0));
#552=DIRECTION('',(-1.23259516440783E-032,1.0,1.22464679914735E-016));
#553=CARTESIAN_POINT('',(1.30899429049255E-015,2.6179885809851E-015,-21.37749907));
#554=DIRECTION('',(6.12323399573677E-017,1.22464679914735E-016,-1.0));
#555=DIRECTION('',(-1.23259516440783E-032,1.0,1.22464679914735E-016));
#556=CARTESIAN_POINT('',(1.59204083889156E-015,3.18408167778312E-015,-26.0));
#557=DIRECTION('',(6.12323399573677E-017,1.22464679914735E-016,-1.0));
#558=DIRECTION('',(-1.23259516440783E-032,1.0,1.22464679914735E-016));
#559=CARTESIAN_POINT('',(1.59204083889156E-015,3.18408167778312E-015,-26.0));
#560=DIRECTION('',(6.12323399573677E-017,1.22464679914735E-016,-1.0));
#561=DIRECTION('',(-1.23259516440783E-032,1.0,1.22464679914735E-016));
ENDSEC;
END-ISO-10303-21;
