ISO-10303-21;
HEADER;
FILE_DESCRIPTION((''),'1');
FILE_NAME('//Big_tech03/bigt/Translate/21_\X2\8F2A90ED7DDA\X0\-DXF/01_\X2\30E130AC30C130E330C330AF30B730EA30FC30BA\X0\/01_\X2\30E130AC30DE30A430AF30ED30C130E330C330AF\X0\ MEGA-S/HSK/E 50/HSK-E50-MEGA4S-80.stp','2012-04-24T06:49:59',(''),(''),'Spatial Interop R18','Kubotek KeyCreator V8.5.1 (14335)',' ');
FILE_SCHEMA(('CONFIG_CONTROL_DESIGN'));
ENDSEC;
DATA;
#1=DESIGN_CONTEXT('',#27,'design');
#2=APPLICATION_PROTOCOL_DEFINITION('INTERNATIONAL STANDARD','config_control_design',1994,#27);
#3=PRODUCT_CATEGORY_RELATIONSHIP('NONE','NONE',#28,#29);
#4=DATE_AND_TIME(#30,#31);
#5=DATE_TIME_ROLE('creation_date');
#6=DATE_TIME_ROLE('classification_date');
#7=PERSON_AND_ORGANIZATION_ROLE('creator');
#8=PERSON_AND_ORGANIZATION_ROLE('design_supplier');
#9=PERSON_AND_ORGANIZATION_ROLE('classification_officer');
#10=PERSON_AND_ORGANIZATION_ROLE('design_owner');
#11=APPROVAL_PERSON_ORGANIZATION(#32,#33,#34);
#12=APPROVAL_DATE_TIME(#4,#33);
#13=CC_DESIGN_APPROVAL(#33,(#35,#36,#37));
#14=CC_DESIGN_DATE_AND_TIME_ASSIGNMENT(#4,#5,(#37));
#15=CC_DESIGN_DATE_AND_TIME_ASSIGNMENT(#4,#6,(#35));
#16=CC_DESIGN_PERSON_AND_ORGANIZATION_ASSIGNMENT(#32,#10,(#38));
#17=CC_DESIGN_PERSON_AND_ORGANIZATION_ASSIGNMENT(#32,#7,(#37));
#18=CC_DESIGN_PERSON_AND_ORGANIZATION_ASSIGNMENT(#32,#7,(#36));
#19=CC_DESIGN_PERSON_AND_ORGANIZATION_ASSIGNMENT(#32,#8,(#36));
#20=CC_DESIGN_SECURITY_CLASSIFICATION(#35,(#36));
#21=CC_DESIGN_PERSON_AND_ORGANIZATION_ASSIGNMENT(#32,#9,(#35));
#22=SHAPE_DEFINITION_REPRESENTATION(#39,#40);
#23= (GEOMETRIC_REPRESENTATION_CONTEXT(3)GLOBAL_UNCERTAINTY_ASSIGNED_CONTEXT((#43))GLOBAL_UNIT_ASSIGNED_CONTEXT((#45,#46,#47))REPRESENTATION_CONTEXT('NONE','WORKSPACE'));
#27=APPLICATION_CONTEXT('CONFIGURATION CONTROLLED 3D DESIGNS OF MECHANICAL PARTS AND ASSEMBLIES');
#28=PRODUCT_CATEGORY('part','NONE');
#29=PRODUCT_RELATED_PRODUCT_CATEGORY('detail',' ',(#38));
#30=CALENDAR_DATE(2012,24,3);
#31=LOCAL_TIME(15,49,59.0,#49);
#32=PERSON_AND_ORGANIZATION(#50,#51);
#33=APPROVAL(#52,'SOLID MODEL');
#34=APPROVAL_ROLE('APPROVED');
#35=SECURITY_CLASSIFICATION('','',#53);
#36=PRODUCT_DEFINITION_FORMATION_WITH_SPECIFIED_SOURCE(' ','NONE',#38,.NOT_KNOWN.);
#37=PRODUCT_DEFINITION('NONE','NONE',#36,#1);
#38=PRODUCT('1','1','PART-1-DESC',(#54));
#39=PRODUCT_DEFINITION_SHAPE('NONE','NONE',#37);
#40=ADVANCED_BREP_SHAPE_REPRESENTATION('1',(#55,#56),#23);
#43=UNCERTAINTY_MEASURE_WITH_UNIT(LENGTH_MEASURE(1.0E-006),#45,'','');
#45= (CONVERSION_BASED_UNIT('MILLIMETRE',#59)LENGTH_UNIT()NAMED_UNIT(#62));
#46= (NAMED_UNIT(#64)PLANE_ANGLE_UNIT()SI_UNIT($,.RADIAN.));
#47= (NAMED_UNIT(#64)SOLID_ANGLE_UNIT()SI_UNIT($,.STERADIAN.));
#49=COORDINATED_UNIVERSAL_TIME_OFFSET(9,0,.AHEAD.);
#50=PERSON('','UNSPECIFIED',$,$,$,$);
#51=ORGANIZATION('UNSPECIFIED','UNSPECIFIED','UNSPECIFIED');
#52=APPROVAL_STATUS('approved');
#53=SECURITY_CLASSIFICATION_LEVEL('unclassified');
#54=MECHANICAL_CONTEXT('',#27,'mechanical');
#55=MANIFOLD_SOLID_BREP('1',#70);
#56=AXIS2_PLACEMENT_3D('',#71,#72,#73);
#59=LENGTH_MEASURE_WITH_UNIT(LENGTH_MEASURE(1.0),#74);
#62=DIMENSIONAL_EXPONENTS(1.0,0.0,0.0,0.0,0.0,0.0,0.0);
#64=DIMENSIONAL_EXPONENTS(0.0,0.0,0.0,0.0,0.0,0.0,0.0);
#70=CLOSED_SHELL('',(#75,#76,#77,#78,#79,#80,#81,#82,#83,#84,#85,#86,#87,#88,#89,#90,#91,#92,#93,#94,#95));
#71=CARTESIAN_POINT('',(0.0,0.0,0.0));
#72=DIRECTION('',(0.0,0.0,1.0));
#73=DIRECTION('',(1.0,0.0,0.0));
#74= (NAMED_UNIT(#62)LENGTH_UNIT()SI_UNIT(.MILLI.,.METRE.));
#75=ADVANCED_FACE('',(#97,#98),#99,.T.);
#76=ADVANCED_FACE('',(#100,#101),#102,.T.);
#77=ADVANCED_FACE('',(#103,#104),#105,.T.);
#78=ADVANCED_FACE('',(#106,#107),#108,.T.);
#79=ADVANCED_FACE('',(#109,#110),#111,.T.);
#80=ADVANCED_FACE('',(#112,#113),#114,.T.);
#81=ADVANCED_FACE('',(#115,#116),#117,.T.);
#82=ADVANCED_FACE('',(#118,#119),#120,.T.);
#83=ADVANCED_FACE('',(#121,#122),#123,.T.);
#84=ADVANCED_FACE('',(#124,#125),#126,.T.);
#85=ADVANCED_FACE('',(#127,#128),#129,.T.);
#86=ADVANCED_FACE('',(#130,#131),#132,.T.);
#87=ADVANCED_FACE('',(#133,#134),#135,.T.);
#88=ADVANCED_FACE('',(#136,#137),#138,.T.);
#89=ADVANCED_FACE('',(#139,#140),#141,.T.);
#90=ADVANCED_FACE('',(#142,#143),#144,.T.);
#91=ADVANCED_FACE('',(#145,#146),#147,.T.);
#92=ADVANCED_FACE('',(#148,#149),#150,.T.);
#93=ADVANCED_FACE('',(#151),#152,.T.);
#94=ADVANCED_FACE('',(#153),#154,.T.);
#95=ADVANCED_FACE('',(#155,#156),#157,.T.);
#97=FACE_BOUND('',#158,.T.);
#98=FACE_BOUND('',#159,.T.);
#99=CYLINDRICAL_SURFACE('',#160,19.15);
#100=FACE_OUTER_BOUND('',#161,.T.);
#101=FACE_BOUND('',#162,.T.);
#102=PLANE('',#163);
#103=FACE_BOUND('',#164,.T.);
#104=FACE_BOUND('',#165,.T.);
#105=CYLINDRICAL_SURFACE('',#166,25.0);
#106=FACE_BOUND('',#167,.T.);
#107=FACE_BOUND('',#168,.T.);
#108=CONICAL_SURFACE('',#169,23.70732735,1.04719755261898);
#109=FACE_BOUND('',#170,.T.);
#110=FACE_OUTER_BOUND('',#171,.T.);
#111=PLANE('',#172);
#112=FACE_BOUND('',#173,.T.);
#113=FACE_BOUND('',#174,.T.);
#114=CYLINDRICAL_SURFACE('',#175,21.5);
#115=FACE_OUTER_BOUND('',#176,.T.);
#116=FACE_BOUND('',#177,.T.);
#117=PLANE('',#178);
#118=FACE_BOUND('',#179,.T.);
#119=FACE_BOUND('',#180,.T.);
#120=CONICAL_SURFACE('',#181,23.69879763,1.04719755326565);
#121=FACE_BOUND('',#182,.T.);
#122=FACE_BOUND('',#183,.T.);
#123=CYLINDRICAL_SURFACE('',#184,25.0);
#124=FACE_BOUND('',#185,.T.);
#125=FACE_OUTER_BOUND('',#186,.T.);
#126=PLANE('',#187);
#127=FACE_BOUND('',#188,.T.);
#128=FACE_BOUND('',#189,.T.);
#129=CONICAL_SURFACE('',#190,11.0,0.785398163397448);
#130=FACE_BOUND('',#191,.T.);
#131=FACE_BOUND('',#192,.T.);
#132=CYLINDRICAL_SURFACE('',#193,6.0);
#133=FACE_BOUND('',#194,.T.);
#134=FACE_BOUND('',#195,.T.);
#135=CONICAL_SURFACE('',#196,5.62500005,1.04719754014652);
#136=FACE_BOUND('',#197,.T.);
#137=FACE_BOUND('',#198,.T.);
#138=CYLINDRICAL_SURFACE('',#199,5.2500001);
#139=FACE_OUTER_BOUND('',#200,.T.);
#140=FACE_BOUND('',#201,.T.);
#141=PLANE('',#202);
#142=FACE_BOUND('',#203,.T.);
#143=FACE_BOUND('',#204,.T.);
#144=CYLINDRICAL_SURFACE('',#205,6.15000071);
#145=FACE_BOUND('',#206,.T.);
#146=FACE_BOUND('',#207,.T.);
#147=CONICAL_SURFACE('',#208,6.07500038,0.523598782746356);
#148=FACE_BOUND('',#209,.T.);
#149=FACE_BOUND('',#210,.T.);
#150=CYLINDRICAL_SURFACE('',#211,6.00000005);
#151=FACE_OUTER_BOUND('',#212,.T.);
#152=PLANE('',#213);
#153=FACE_OUTER_BOUND('',#214,.T.);
#154=PLANE('',#215);
#155=FACE_BOUND('',#216,.T.);
#156=FACE_BOUND('',#217,.T.);
#157=CONICAL_SURFACE('',#218,18.5750000005215,0.049958395676703);
#158=EDGE_LOOP('',(#219));
#159=EDGE_LOOP('',(#220));
#160=AXIS2_PLACEMENT_3D('',#221,#222,#223);
#161=EDGE_LOOP('',(#224));
#162=EDGE_LOOP('',(#225));
#163=AXIS2_PLACEMENT_3D('',#226,#227,#228);
#164=EDGE_LOOP('',(#229));
#165=EDGE_LOOP('',(#230));
#166=AXIS2_PLACEMENT_3D('',#231,#232,#233);
#167=EDGE_LOOP('',(#234));
#168=EDGE_LOOP('',(#235));
#169=AXIS2_PLACEMENT_3D('',#236,#237,#238);
#170=EDGE_LOOP('',(#239));
#171=EDGE_LOOP('',(#240));
#172=AXIS2_PLACEMENT_3D('',#241,#242,#243);
#173=EDGE_LOOP('',(#244));
#174=EDGE_LOOP('',(#245));
#175=AXIS2_PLACEMENT_3D('',#246,#247,#248);
#176=EDGE_LOOP('',(#249));
#177=EDGE_LOOP('',(#250));
#178=AXIS2_PLACEMENT_3D('',#251,#252,#253);
#179=EDGE_LOOP('',(#254));
#180=EDGE_LOOP('',(#255));
#181=AXIS2_PLACEMENT_3D('',#256,#257,#258);
#182=EDGE_LOOP('',(#259));
#183=EDGE_LOOP('',(#260));
#184=AXIS2_PLACEMENT_3D('',#261,#262,#263);
#185=EDGE_LOOP('',(#264));
#186=EDGE_LOOP('',(#265));
#187=AXIS2_PLACEMENT_3D('',#266,#267,#268);
#188=EDGE_LOOP('',(#269));
#189=EDGE_LOOP('',(#270));
#190=AXIS2_PLACEMENT_3D('',#271,#272,#273);
#191=EDGE_LOOP('',(#274));
#192=EDGE_LOOP('',(#275));
#193=AXIS2_PLACEMENT_3D('',#276,#277,#278);
#194=EDGE_LOOP('',(#279));
#195=EDGE_LOOP('',(#280));
#196=AXIS2_PLACEMENT_3D('',#281,#282,#283);
#197=EDGE_LOOP('',(#284));
#198=EDGE_LOOP('',(#285));
#199=AXIS2_PLACEMENT_3D('',#286,#287,#288);
#200=EDGE_LOOP('',(#289));
#201=EDGE_LOOP('',(#290));
#202=AXIS2_PLACEMENT_3D('',#291,#292,#293);
#203=EDGE_LOOP('',(#294));
#204=EDGE_LOOP('',(#295));
#205=AXIS2_PLACEMENT_3D('',#296,#297,#298);
#206=EDGE_LOOP('',(#299));
#207=EDGE_LOOP('',(#300));
#208=AXIS2_PLACEMENT_3D('',#301,#302,#303);
#209=EDGE_LOOP('',(#304));
#210=EDGE_LOOP('',(#305));
#211=AXIS2_PLACEMENT_3D('',#306,#307,#308);
#212=EDGE_LOOP('',(#309));
#213=AXIS2_PLACEMENT_3D('',#310,#311,#312);
#214=EDGE_LOOP('',(#313));
#215=AXIS2_PLACEMENT_3D('',#314,#315,#316);
#216=EDGE_LOOP('',(#317));
#217=EDGE_LOOP('',(#318));
#218=AXIS2_PLACEMENT_3D('',#319,#320,#321);
#219=ORIENTED_EDGE('',*,*,#322,.F.);
#220=ORIENTED_EDGE('',*,*,#323,.T.);
#221=CARTESIAN_POINT('',(-6.12323399573677E-017,-1.22464679914735E-016,1.0));
#222=DIRECTION('',(-6.12323399573677E-017,-1.22464679914735E-016,1.0));
#223=DIRECTION('',(-1.23259516440783E-032,1.0,1.22464679914735E-016));
#224=ORIENTED_EDGE('',*,*,#324,.F.);
#225=ORIENTED_EDGE('',*,*,#322,.T.);
#226=CARTESIAN_POINT('',(-2.72095382543029E-031,22.075,2.70340780911778E-015));
#227=DIRECTION('',(-6.12323399573677E-017,-1.22464679914735E-016,1.0));
#228=DIRECTION('',(1.23259516440783E-032,-1.0,-1.22464679914735E-016));
#229=ORIENTED_EDGE('',*,*,#325,.F.);
#230=ORIENTED_EDGE('',*,*,#324,.T.);
#231=CARTESIAN_POINT('',(4.47986520910828E-016,8.95973041821656E-016,-7.3161751));
#232=DIRECTION('',(-6.12323399573677E-017,-1.22464679914735E-016,1.0));
#233=DIRECTION('',(-1.23259516440783E-032,1.0,1.22464679914735E-016));
#234=ORIENTED_EDGE('',*,*,#326,.F.);
#235=ORIENTED_EDGE('',*,*,#325,.T.);
#236=CARTESIAN_POINT('',(9.41672261817105E-016,1.88334452363421E-015,-15.3786751));
#237=DIRECTION('',(-6.12323399573677E-017,-1.22464679914735E-016,1.0));
#238=DIRECTION('',(-1.23259516440783E-032,1.0,1.22464679914735E-016));
#239=ORIENTED_EDGE('',*,*,#327,.F.);
#240=ORIENTED_EDGE('',*,*,#326,.T.);
#241=CARTESIAN_POINT('',(9.87371481812553E-016,21.95732735,-16.125));
#242=DIRECTION('',(6.12323399573677E-017,1.22464679914735E-016,-1.0));
#243=DIRECTION('',(-1.23259516440783E-032,1.0,1.22464679914735E-016));
#244=ORIENTED_EDGE('',*,*,#328,.F.);
#245=ORIENTED_EDGE('',*,*,#327,.T.);
#246=CARTESIAN_POINT('',(1.10218211923262E-015,2.20436423846524E-015,-18.0));
#247=DIRECTION('',(-6.12323399573677E-017,-1.22464679914735E-016,1.0));
#248=DIRECTION('',(-1.23259516440783E-032,1.0,1.22464679914735E-016));
#249=ORIENTED_EDGE('',*,*,#329,.F.);
#250=ORIENTED_EDGE('',*,*,#328,.T.);
#251=CARTESIAN_POINT('',(1.21699275665268E-015,21.94879763,-19.875));
#252=DIRECTION('',(-6.12323399573677E-017,-1.22464679914735E-016,1.0));
#253=DIRECTION('',(1.23259516440783E-032,-1.0,-1.22464679914735E-016));
#254=ORIENTED_EDGE('',*,*,#330,.F.);
#255=ORIENTED_EDGE('',*,*,#329,.T.);
#256=CARTESIAN_POINT('',(1.26299352357262E-015,2.52598704714523E-015,-20.626249535));
#257=DIRECTION('',(6.12323399573676E-017,1.22464679914735E-016,-1.0));
#258=DIRECTION('',(-1.23259516440783E-032,1.0,1.22464679914735E-016));
#259=ORIENTED_EDGE('',*,*,#331,.F.);
#260=ORIENTED_EDGE('',*,*,#330,.T.);
#261=CARTESIAN_POINT('',(1.45051756469205E-015,2.90103512938411E-015,-23.688749535));
#262=DIRECTION('',(-6.12323399573677E-017,-1.22464679914735E-016,1.0));
#263=DIRECTION('',(-1.23259516440783E-032,1.0,1.22464679914735E-016));
#264=ORIENTED_EDGE('',*,*,#332,.F.);
#265=ORIENTED_EDGE('',*,*,#331,.T.);
#266=CARTESIAN_POINT('',(1.59204083889156E-015,20.5,-26.0));
#267=DIRECTION('',(6.12323399573677E-017,1.22464679914735E-016,-1.0));
#268=DIRECTION('',(-1.23259516440783E-032,1.0,1.22464679914735E-016));
#269=ORIENTED_EDGE('',*,*,#333,.F.);
#270=ORIENTED_EDGE('',*,*,#332,.T.);
#271=CARTESIAN_POINT('',(1.8982025386784E-015,3.79640507735679E-015,-31.0));
#272=DIRECTION('',(-6.12323399573677E-017,-1.22464679914735E-016,1.0));
#273=DIRECTION('',(-1.23259516440783E-032,1.0,1.22464679914735E-016));
#274=ORIENTED_EDGE('',*,*,#334,.F.);
#275=ORIENTED_EDGE('',*,*,#333,.T.);
#276=CARTESIAN_POINT('',(3.07346649337887E-015,6.14693298675774E-015,-50.1935169473964));
#277=DIRECTION('',(-6.12323399573677E-017,-1.22464679914735E-016,1.0));
#278=DIRECTION('',(-1.23259516440783E-032,1.0,1.22464679914735E-016));
#279=ORIENTED_EDGE('',*,*,#335,.F.);
#280=ORIENTED_EDGE('',*,*,#334,.T.);
#281=CARTESIAN_POINT('',(3.95582593734725E-015,7.9116518746945E-015,-64.6035402223964));
#282=DIRECTION('',(-6.12323399573677E-017,-1.22464679914735E-016,1.0));
#283=DIRECTION('',(-1.23259516440783E-032,1.0,1.22464679914735E-016));
#284=ORIENTED_EDGE('',*,*,#336,.F.);
#285=ORIENTED_EDGE('',*,*,#335,.T.);
#286=CARTESIAN_POINT('',(3.98990064996205E-015,7.9798012999241E-015,-65.16002251));
#287=DIRECTION('',(-6.12323399573677E-017,-1.22464679914735E-016,1.0));
#288=DIRECTION('',(-1.23259516440783E-032,1.0,1.22464679914735E-016));
#289=ORIENTED_EDGE('',*,*,#337,.F.);
#290=ORIENTED_EDGE('',*,*,#336,.T.);
#291=CARTESIAN_POINT('',(4.0107181735221E-015,5.70000040500001,-65.49999847));
#292=DIRECTION('',(-6.12323399573677E-017,-1.22464679914735E-016,1.0));
#293=DIRECTION('',(1.23259516440783E-032,-1.0,-1.22464679914735E-016));
#294=ORIENTED_EDGE('',*,*,#338,.F.);
#295=ORIENTED_EDGE('',*,*,#337,.T.);
#296=CARTESIAN_POINT('',(4.07195051347947E-015,8.14390102695894E-015,-66.49999847));
#297=DIRECTION('',(-6.12323399573677E-017,-1.22464679914735E-016,1.0));
#298=DIRECTION('',(-1.23259516440783E-032,1.0,1.22464679914735E-016));
#299=ORIENTED_EDGE('',*,*,#339,.F.);
#300=ORIENTED_EDGE('',*,*,#338,.T.);
#301=CARTESIAN_POINT('',(4.14113720259495E-015,8.2822744051899E-015,-67.62990285));
#302=DIRECTION('',(-6.12323399573677E-017,-1.22464679914735E-016,1.0));
#303=DIRECTION('',(-1.23259516440783E-032,1.0,1.22464679914735E-016));
#304=ORIENTED_EDGE('',*,*,#340,.F.);
#305=ORIENTED_EDGE('',*,*,#339,.T.);
#306=CARTESIAN_POINT('',(4.52383937417124E-015,9.04767874834247E-015,-73.879903615));
#307=DIRECTION('',(-6.12323399573677E-017,-1.22464679914735E-016,1.0));
#308=DIRECTION('',(-1.23259516440783E-032,1.0,1.22464679914735E-016));
#309=ORIENTED_EDGE('',*,*,#340,.T.);
#310=CARTESIAN_POINT('',(4.89858719658941E-015,3.00000002500001,-80.0));
#311=DIRECTION('',(6.12323399573677E-017,1.22464679914735E-016,-1.0));
#312=DIRECTION('',(-1.23259516440783E-032,1.0,1.22464679914735E-016));
#313=ORIENTED_EDGE('',*,*,#341,.F.);
#314=CARTESIAN_POINT('',(-1.53080849893419E-015,9.00000000052154,25.0));
#315=DIRECTION('',(-6.12323399573677E-017,-1.22464679914735E-016,1.0));
#316=DIRECTION('',(1.23259516440783E-032,-1.0,-1.22464679914735E-016));
#317=ORIENTED_EDGE('',*,*,#323,.F.);
#318=ORIENTED_EDGE('',*,*,#341,.T.);
#319=CARTESIAN_POINT('',(-8.26636589424463E-016,-1.65327317884893E-015,13.5));
#320=DIRECTION('',(6.12323399573677E-017,1.22464679914735E-016,-1.0));
#321=DIRECTION('',(-1.23259516440783E-032,1.0,1.22464679914735E-016));
#322=EDGE_CURVE('',#342,#342,#343,.T.);
#323=EDGE_CURVE('',#344,#344,#345,.T.);
#324=EDGE_CURVE('',#346,#346,#347,.T.);
#325=EDGE_CURVE('',#348,#348,#349,.T.);
#326=EDGE_CURVE('',#350,#350,#351,.T.);
#327=EDGE_CURVE('',#352,#352,#353,.T.);
#328=EDGE_CURVE('',#354,#354,#355,.T.);
#329=EDGE_CURVE('',#356,#356,#357,.T.);
#330=EDGE_CURVE('',#358,#358,#359,.T.);
#331=EDGE_CURVE('',#360,#360,#361,.T.);
#332=EDGE_CURVE('',#362,#362,#363,.T.);
#333=EDGE_CURVE('',#364,#364,#365,.T.);
#334=EDGE_CURVE('',#366,#366,#367,.T.);
#335=EDGE_CURVE('',#368,#368,#369,.T.);
#336=EDGE_CURVE('',#370,#370,#371,.T.);
#337=EDGE_CURVE('',#372,#372,#373,.T.);
#338=EDGE_CURVE('',#374,#374,#375,.T.);
#339=EDGE_CURVE('',#376,#376,#377,.T.);
#340=EDGE_CURVE('',#378,#378,#379,.T.);
#341=EDGE_CURVE('',#380,#380,#381,.T.);
#342=VERTEX_POINT('',#382);
#343=CIRCLE('',#383,19.15);
#344=VERTEX_POINT('',#384);
#345=CIRCLE('',#385,19.15);
#346=VERTEX_POINT('',#386);
#347=CIRCLE('',#387,25.0);
#348=VERTEX_POINT('',#388);
#349=CIRCLE('',#389,25.0);
#350=VERTEX_POINT('',#390);
#351=CIRCLE('',#391,22.4146547);
#352=VERTEX_POINT('',#392);
#353=CIRCLE('',#393,21.5);
#354=VERTEX_POINT('',#394);
#355=CIRCLE('',#395,21.5);
#356=VERTEX_POINT('',#396);
#357=CIRCLE('',#397,22.39759526);
#358=VERTEX_POINT('',#398);
#359=CIRCLE('',#399,25.0);
#360=VERTEX_POINT('',#400);
#361=CIRCLE('',#401,25.0);
#362=VERTEX_POINT('',#402);
#363=CIRCLE('',#403,16.0);
#364=VERTEX_POINT('',#404);
#365=CIRCLE('',#405,6.0);
#366=VERTEX_POINT('',#406);
#367=CIRCLE('',#407,6.0);
#368=VERTEX_POINT('',#408);
#369=CIRCLE('',#409,5.2500001);
#370=VERTEX_POINT('',#410);
#371=CIRCLE('',#411,5.2500001);
#372=VERTEX_POINT('',#412);
#373=CIRCLE('',#413,6.15000071);
#374=VERTEX_POINT('',#414);
#375=CIRCLE('',#415,6.15000071);
#376=VERTEX_POINT('',#416);
#377=CIRCLE('',#417,6.00000005);
#378=VERTEX_POINT('',#418);
#379=CIRCLE('',#419,6.00000005);
#380=VERTEX_POINT('',#420);
#381=CIRCLE('',#421,18.0000000010431);
#382=CARTESIAN_POINT('',(-2.360419739841E-031,19.15,2.34519862036718E-015));
#383=AXIS2_PLACEMENT_3D('',#422,#423,#424);
#384=CARTESIAN_POINT('',(-1.22464679914736E-016,19.15,2.0));
#385=AXIS2_PLACEMENT_3D('',#425,#426,#427);
#386=CARTESIAN_POINT('',(-3.08148791101958E-031,25.0,3.06161699786838E-015));
#387=AXIS2_PLACEMENT_3D('',#428,#429,#430);
#388=CARTESIAN_POINT('',(8.95973041821656E-016,25.0,-14.6323502));
#389=AXIS2_PLACEMENT_3D('',#431,#432,#433);
#390=CARTESIAN_POINT('',(9.87371481812553E-016,22.4146547,-16.125));
#391=AXIS2_PLACEMENT_3D('',#434,#435,#436);
#392=CARTESIAN_POINT('',(9.87371481812553E-016,21.5,-16.125));
#393=AXIS2_PLACEMENT_3D('',#437,#438,#439);
#394=CARTESIAN_POINT('',(1.21699275665268E-015,21.5,-19.875));
#395=AXIS2_PLACEMENT_3D('',#440,#441,#442);
#396=CARTESIAN_POINT('',(1.21699275665268E-015,22.39759526,-19.875));
#397=AXIS2_PLACEMENT_3D('',#443,#444,#445);
#398=CARTESIAN_POINT('',(1.30899429049255E-015,25.0,-21.37749907));
#399=AXIS2_PLACEMENT_3D('',#446,#447,#448);
#400=CARTESIAN_POINT('',(1.59204083889156E-015,25.0,-26.0));
#401=AXIS2_PLACEMENT_3D('',#449,#450,#451);
#402=CARTESIAN_POINT('',(1.59204083889156E-015,16.0,-26.0));
#403=AXIS2_PLACEMENT_3D('',#452,#453,#454);
#404=CARTESIAN_POINT('',(2.20436423846524E-015,6.0,-36.0));
#405=AXIS2_PLACEMENT_3D('',#455,#456,#457);
#406=CARTESIAN_POINT('',(3.9425687482925E-015,6.00000000000001,-64.3870338947927));
#407=AXIS2_PLACEMENT_3D('',#458,#459,#460);
#408=CARTESIAN_POINT('',(3.969083126402E-015,5.25000010000001,-64.82004655));
#409=AXIS2_PLACEMENT_3D('',#461,#462,#463);
#410=CARTESIAN_POINT('',(4.0107181735221E-015,5.25000010000001,-65.49999847));
#411=AXIS2_PLACEMENT_3D('',#464,#465,#466);
#412=CARTESIAN_POINT('',(4.0107181735221E-015,6.15000071000001,-65.49999847));
#413=AXIS2_PLACEMENT_3D('',#467,#468,#469);
#414=CARTESIAN_POINT('',(4.13318285343684E-015,6.15000071000001,-67.49999847));
#415=AXIS2_PLACEMENT_3D('',#470,#471,#472);
#416=CARTESIAN_POINT('',(4.14909155175306E-015,6.00000005000001,-67.75980723));
#417=AXIS2_PLACEMENT_3D('',#473,#474,#475);
#418=CARTESIAN_POINT('',(4.89858719658941E-015,6.00000005000001,-80.0));
#419=AXIS2_PLACEMENT_3D('',#476,#477,#478);
#420=CARTESIAN_POINT('',(-1.53080849893419E-015,18.0000000010431,25.0));
#421=AXIS2_PLACEMENT_3D('',#479,#480,#481);
#422=CARTESIAN_POINT('',(0.0,0.0,0.0));
#423=DIRECTION('',(6.12323399573677E-017,1.22464679914735E-016,-1.0));
#424=DIRECTION('',(-1.23259516440783E-032,1.0,1.22464679914735E-016));
#425=CARTESIAN_POINT('',(-1.22464679914735E-016,-2.44929359829471E-016,2.0));
#426=DIRECTION('',(6.12323399573677E-017,1.22464679914735E-016,-1.0));
#427=DIRECTION('',(-1.23259516440783E-032,1.0,1.22464679914735E-016));
#428=CARTESIAN_POINT('',(0.0,0.0,0.0));
#429=DIRECTION('',(6.12323399573677E-017,1.22464679914735E-016,-1.0));
#430=DIRECTION('',(-1.23259516440783E-032,1.0,1.22464679914735E-016));
#431=CARTESIAN_POINT('',(8.95973041821657E-016,1.79194608364331E-015,-14.6323502));
#432=DIRECTION('',(6.12323399573677E-017,1.22464679914735E-016,-1.0));
#433=DIRECTION('',(-1.23259516440783E-032,1.0,1.22464679914735E-016));
#434=CARTESIAN_POINT('',(9.87371481812553E-016,1.97474296362511E-015,-16.125));
#435=DIRECTION('',(6.12323399573677E-017,1.22464679914735E-016,-1.0));
#436=DIRECTION('',(-1.23259516440783E-032,1.0,1.22464679914735E-016));
#437=CARTESIAN_POINT('',(9.87371481812553E-016,1.97474296362511E-015,-16.125));
#438=DIRECTION('',(6.12323399573677E-017,1.22464679914735E-016,-1.0));
#439=DIRECTION('',(-1.23259516440783E-032,1.0,1.22464679914735E-016));
#440=CARTESIAN_POINT('',(1.21699275665268E-015,2.43398551330536E-015,-19.875));
#441=DIRECTION('',(6.12323399573677E-017,1.22464679914735E-016,-1.0));
#442=DIRECTION('',(-1.23259516440783E-032,1.0,1.22464679914735E-016));
#443=CARTESIAN_POINT('',(1.21699275665268E-015,2.43398551330536E-015,-19.875));
#444=DIRECTION('',(6.12323399573677E-017,1.22464679914735E-016,-1.0));
#445=DIRECTION('',(-1.23259516440783E-032,1.0,1.22464679914735E-016));
#446=CARTESIAN_POINT('',(1.30899429049255E-015,2.6179885809851E-015,-21.37749907));
#447=DIRECTION('',(6.12323399573677E-017,1.22464679914735E-016,-1.0));
#448=DIRECTION('',(-1.23259516440783E-032,1.0,1.22464679914735E-016));
#449=CARTESIAN_POINT('',(1.59204083889156E-015,3.18408167778312E-015,-26.0));
#450=DIRECTION('',(6.12323399573677E-017,1.22464679914735E-016,-1.0));
#451=DIRECTION('',(-1.23259516440783E-032,1.0,1.22464679914735E-016));
#452=CARTESIAN_POINT('',(1.59204083889156E-015,3.18408167778312E-015,-26.0));
#453=DIRECTION('',(6.12323399573677E-017,1.22464679914735E-016,-1.0));
#454=DIRECTION('',(-1.23259516440783E-032,1.0,1.22464679914735E-016));
#455=CARTESIAN_POINT('',(2.20436423846524E-015,4.40872847693047E-015,-36.0));
#456=DIRECTION('',(6.12323399573677E-017,1.22464679914735E-016,-1.0));
#457=DIRECTION('',(-1.23259516440783E-032,1.0,1.22464679914735E-016));
#458=CARTESIAN_POINT('',(3.9425687482925E-015,7.88513749658501E-015,-64.3870338947927));
#459=DIRECTION('',(6.12323399573677E-017,1.22464679914735E-016,-1.0));
#460=DIRECTION('',(-1.23259516440783E-032,1.0,1.22464679914735E-016));
#461=CARTESIAN_POINT('',(3.969083126402E-015,7.93816625280399E-015,-64.82004655));
#462=DIRECTION('',(6.12323399573677E-017,1.22464679914735E-016,-1.0));
#463=DIRECTION('',(-1.23259516440783E-032,1.0,1.22464679914735E-016));
#464=CARTESIAN_POINT('',(4.0107181735221E-015,8.0214363470442E-015,-65.49999847));
#465=DIRECTION('',(6.12323399573677E-017,1.22464679914735E-016,-1.0));
#466=DIRECTION('',(-1.23259516440783E-032,1.0,1.22464679914735E-016));
#467=CARTESIAN_POINT('',(4.0107181735221E-015,8.0214363470442E-015,-65.49999847));
#468=DIRECTION('',(6.12323399573677E-017,1.22464679914735E-016,-1.0));
#469=DIRECTION('',(-1.23259516440783E-032,1.0,1.22464679914735E-016));
#470=CARTESIAN_POINT('',(4.13318285343684E-015,8.26636570687367E-015,-67.49999847));
#471=DIRECTION('',(6.12323399573677E-017,1.22464679914735E-016,-1.0));
#472=DIRECTION('',(-1.23259516440783E-032,1.0,1.22464679914735E-016));
#473=CARTESIAN_POINT('',(4.14909155175306E-015,8.29818310350612E-015,-67.75980723));
#474=DIRECTION('',(6.12323399573677E-017,1.22464679914735E-016,-1.0));
#475=DIRECTION('',(-1.23259516440783E-032,1.0,1.22464679914735E-016));
#476=CARTESIAN_POINT('',(4.89858719658941E-015,9.79717439317882E-015,-80.0));
#477=DIRECTION('',(6.12323399573677E-017,1.22464679914735E-016,-1.0));
#478=DIRECTION('',(-1.23259516440783E-032,1.0,1.22464679914735E-016));
#479=CARTESIAN_POINT('',(-1.53080849893419E-015,-3.06161699786838E-015,25.0));
#480=DIRECTION('',(6.12323399573677E-017,1.22464679914735E-016,-1.0));
#481=DIRECTION('',(-1.23259516440783E-032,1.0,1.22464679914735E-016));
ENDSEC;
END-ISO-10303-21;
