ISO-10303-21;
HEADER;
FILE_DESCRIPTION((''),'1');
FILE_NAME('//Big_tech03/bigt/Translate/21_\X2\8F2A90ED7DDA\X0\-DXF/13_\X2\30CF30A430C930ED30C130E330C330AF\X0\ HDC/HSK/A 50/HSK-A50-HDC25-90.stp','2012-05-15T05:44:33',(''),(''),'Spatial Interop R18','Kubotek KeyCreator V8.5.1 (14335)',' ');
FILE_SCHEMA(('CONFIG_CONTROL_DESIGN'));
ENDSEC;
DATA;
#1=DESIGN_CONTEXT('',#27,'design');
#2=APPLICATION_PROTOCOL_DEFINITION('INTERNATIONAL STANDARD','config_control_design',1994,#27);
#3=PRODUCT_CATEGORY_RELATIONSHIP('NONE','NONE',#28,#29);
#4=DATE_AND_TIME(#30,#31);
#5=DATE_TIME_ROLE('creation_date');
#6=DATE_TIME_ROLE('classification_date');
#7=PERSON_AND_ORGANIZATION_ROLE('creator');
#8=PERSON_AND_ORGANIZATION_ROLE('design_supplier');
#9=PERSON_AND_ORGANIZATION_ROLE('classification_officer');
#10=PERSON_AND_ORGANIZATION_ROLE('design_owner');
#11=APPROVAL_PERSON_ORGANIZATION(#32,#33,#34);
#12=APPROVAL_DATE_TIME(#4,#33);
#13=CC_DESIGN_APPROVAL(#33,(#35,#36,#37));
#14=CC_DESIGN_DATE_AND_TIME_ASSIGNMENT(#4,#5,(#37));
#15=CC_DESIGN_DATE_AND_TIME_ASSIGNMENT(#4,#6,(#35));
#16=CC_DESIGN_PERSON_AND_ORGANIZATION_ASSIGNMENT(#32,#10,(#38));
#17=CC_DESIGN_PERSON_AND_ORGANIZATION_ASSIGNMENT(#32,#7,(#37));
#18=CC_DESIGN_PERSON_AND_ORGANIZATION_ASSIGNMENT(#32,#7,(#36));
#19=CC_DESIGN_PERSON_AND_ORGANIZATION_ASSIGNMENT(#32,#8,(#36));
#20=CC_DESIGN_SECURITY_CLASSIFICATION(#35,(#36));
#21=CC_DESIGN_PERSON_AND_ORGANIZATION_ASSIGNMENT(#32,#9,(#35));
#22=SHAPE_DEFINITION_REPRESENTATION(#39,#40);
#23= (GEOMETRIC_REPRESENTATION_CONTEXT(3)GLOBAL_UNCERTAINTY_ASSIGNED_CONTEXT((#43))GLOBAL_UNIT_ASSIGNED_CONTEXT((#45,#46,#47))REPRESENTATION_CONTEXT('NONE','WORKSPACE'));
#27=APPLICATION_CONTEXT('CONFIGURATION CONTROLLED 3D DESIGNS OF MECHANICAL PARTS AND ASSEMBLIES');
#28=PRODUCT_CATEGORY('part','NONE');
#29=PRODUCT_RELATED_PRODUCT_CATEGORY('detail',' ',(#38));
#30=CALENDAR_DATE(2012,15,4);
#31=LOCAL_TIME(14,44,33.0,#49);
#32=PERSON_AND_ORGANIZATION(#50,#51);
#33=APPROVAL(#52,'SOLID MODEL');
#34=APPROVAL_ROLE('APPROVED');
#35=SECURITY_CLASSIFICATION('','',#53);
#36=PRODUCT_DEFINITION_FORMATION_WITH_SPECIFIED_SOURCE(' ','NONE',#38,.NOT_KNOWN.);
#37=PRODUCT_DEFINITION('NONE','NONE',#36,#1);
#38=PRODUCT('1','1','PART-1-DESC',(#54));
#39=PRODUCT_DEFINITION_SHAPE('NONE','NONE',#37);
#40=ADVANCED_BREP_SHAPE_REPRESENTATION('1',(#55,#56),#23);
#43=UNCERTAINTY_MEASURE_WITH_UNIT(LENGTH_MEASURE(1.0E-006),#45,'','');
#45= (CONVERSION_BASED_UNIT('MILLIMETRE',#59)LENGTH_UNIT()NAMED_UNIT(#62));
#46= (NAMED_UNIT(#64)PLANE_ANGLE_UNIT()SI_UNIT($,.RADIAN.));
#47= (NAMED_UNIT(#64)SOLID_ANGLE_UNIT()SI_UNIT($,.STERADIAN.));
#49=COORDINATED_UNIVERSAL_TIME_OFFSET(9,0,.AHEAD.);
#50=PERSON('','UNSPECIFIED',$,$,$,$);
#51=ORGANIZATION('UNSPECIFIED','UNSPECIFIED','UNSPECIFIED');
#52=APPROVAL_STATUS('approved');
#53=SECURITY_CLASSIFICATION_LEVEL('unclassified');
#54=MECHANICAL_CONTEXT('',#27,'mechanical');
#55=MANIFOLD_SOLID_BREP('1',#70);
#56=AXIS2_PLACEMENT_3D('',#71,#72,#73);
#59=LENGTH_MEASURE_WITH_UNIT(LENGTH_MEASURE(1.0),#74);
#62=DIMENSIONAL_EXPONENTS(1.0,0.0,0.0,0.0,0.0,0.0,0.0);
#64=DIMENSIONAL_EXPONENTS(0.0,0.0,0.0,0.0,0.0,0.0,0.0);
#70=CLOSED_SHELL('',(#75,#76,#77,#78,#79,#80,#81,#82,#83,#84,#85,#86,#87,#88,#89,#90,#91,#92,#93,#94,#95,#96));
#71=CARTESIAN_POINT('',(0.0,0.0,0.0));
#72=DIRECTION('',(0.0,0.0,1.0));
#73=DIRECTION('',(1.0,0.0,0.0));
#74= (NAMED_UNIT(#62)LENGTH_UNIT()SI_UNIT(.MILLI.,.METRE.));
#75=ADVANCED_FACE('',(#98,#99),#100,.T.);
#76=ADVANCED_FACE('',(#101,#102),#103,.T.);
#77=ADVANCED_FACE('',(#104,#105),#106,.T.);
#78=ADVANCED_FACE('',(#107,#108),#109,.T.);
#79=ADVANCED_FACE('',(#110,#111),#112,.T.);
#80=ADVANCED_FACE('',(#113,#114),#115,.T.);
#81=ADVANCED_FACE('',(#116,#117),#118,.T.);
#82=ADVANCED_FACE('',(#119),#120,.T.);
#83=ADVANCED_FACE('',(#121,#122),#123,.T.);
#84=ADVANCED_FACE('',(#124),#125,.T.);
#85=ADVANCED_FACE('',(#126,#127),#128,.T.);
#86=ADVANCED_FACE('',(#129,#130),#131,.T.);
#87=ADVANCED_FACE('',(#132,#133),#134,.T.);
#88=ADVANCED_FACE('',(#135,#136),#137,.T.);
#89=ADVANCED_FACE('',(#138,#139),#140,.T.);
#90=ADVANCED_FACE('',(#141,#142),#143,.T.);
#91=ADVANCED_FACE('',(#144,#145),#146,.T.);
#92=ADVANCED_FACE('',(#147,#148),#149,.T.);
#93=ADVANCED_FACE('',(#150,#151),#152,.T.);
#94=ADVANCED_FACE('',(#153,#154),#155,.T.);
#95=ADVANCED_FACE('',(#156,#157),#158,.T.);
#96=ADVANCED_FACE('',(#159,#160),#161,.T.);
#98=FACE_BOUND('',#162,.T.);
#99=FACE_BOUND('',#163,.T.);
#100=CYLINDRICAL_SURFACE('',#164,31.45);
#101=FACE_BOUND('',#165,.T.);
#102=FACE_BOUND('',#166,.T.);
#103=CONICAL_SURFACE('',#167,29.475,0.785398163397447);
#104=FACE_BOUND('',#168,.T.);
#105=FACE_BOUND('',#169,.T.);
#106=CYLINDRICAL_SURFACE('',#170,27.5);
#107=FACE_BOUND('',#171,.T.);
#108=FACE_BOUND('',#172,.T.);
#109=CONICAL_SURFACE('',#173,27.12527034,0.130899694859117);
#110=FACE_BOUND('',#174,.T.);
#111=FACE_BOUND('',#175,.T.);
#112=CONICAL_SURFACE('',#176,26.2027703358976,0.523598781013397);
#113=FACE_BOUND('',#177,.T.);
#114=FACE_OUTER_BOUND('',#178,.T.);
#115=PLANE('',#179);
#116=FACE_BOUND('',#180,.T.);
#117=FACE_BOUND('',#181,.T.);
#118=CONICAL_SURFACE('',#182,15.65,0.785398163397425);
#119=FACE_OUTER_BOUND('',#183,.T.);
#120=PLANE('',#184);
#121=FACE_BOUND('',#185,.T.);
#122=FACE_BOUND('',#186,.T.);
#123=CONICAL_SURFACE('',#187,26.125,1.30899693962892);
#124=FACE_OUTER_BOUND('',#188,.T.);
#125=PLANE('',#189);
#126=FACE_BOUND('',#190,.T.);
#127=FACE_BOUND('',#191,.T.);
#128=CONICAL_SURFACE('',#192,18.5750000005215,0.049958395676703);
#129=FACE_BOUND('',#193,.T.);
#130=FACE_BOUND('',#194,.T.);
#131=CYLINDRICAL_SURFACE('',#195,19.15);
#132=FACE_OUTER_BOUND('',#196,.T.);
#133=FACE_BOUND('',#197,.T.);
#134=PLANE('',#198);
#135=FACE_BOUND('',#199,.T.);
#136=FACE_BOUND('',#200,.T.);
#137=CYLINDRICAL_SURFACE('',#201,25.0);
#138=FACE_BOUND('',#202,.T.);
#139=FACE_BOUND('',#203,.T.);
#140=CONICAL_SURFACE('',#204,23.69879763,1.04719755326565);
#141=FACE_BOUND('',#205,.T.);
#142=FACE_OUTER_BOUND('',#206,.T.);
#143=PLANE('',#207);
#144=FACE_BOUND('',#208,.T.);
#145=FACE_BOUND('',#209,.T.);
#146=CYLINDRICAL_SURFACE('',#210,21.5);
#147=FACE_OUTER_BOUND('',#211,.T.);
#148=FACE_BOUND('',#212,.T.);
#149=PLANE('',#213);
#150=FACE_BOUND('',#214,.T.);
#151=FACE_BOUND('',#215,.T.);
#152=CONICAL_SURFACE('',#216,23.69879763,1.04719755326565);
#153=FACE_BOUND('',#217,.T.);
#154=FACE_BOUND('',#218,.T.);
#155=CYLINDRICAL_SURFACE('',#219,25.0);
#156=FACE_BOUND('',#220,.T.);
#157=FACE_OUTER_BOUND('',#221,.T.);
#158=PLANE('',#222);
#159=FACE_BOUND('',#223,.T.);
#160=FACE_BOUND('',#224,.T.);
#161=CYLINDRICAL_SURFACE('',#225,20.8);
#162=EDGE_LOOP('',(#226));
#163=EDGE_LOOP('',(#227));
#164=AXIS2_PLACEMENT_3D('',#228,#229,#230);
#165=EDGE_LOOP('',(#231));
#166=EDGE_LOOP('',(#232));
#167=AXIS2_PLACEMENT_3D('',#233,#234,#235);
#168=EDGE_LOOP('',(#236));
#169=EDGE_LOOP('',(#237));
#170=AXIS2_PLACEMENT_3D('',#238,#239,#240);
#171=EDGE_LOOP('',(#241));
#172=EDGE_LOOP('',(#242));
#173=AXIS2_PLACEMENT_3D('',#243,#244,#245);
#174=EDGE_LOOP('',(#246));
#175=EDGE_LOOP('',(#247));
#176=AXIS2_PLACEMENT_3D('',#248,#249,#250);
#177=EDGE_LOOP('',(#251));
#178=EDGE_LOOP('',(#252));
#179=AXIS2_PLACEMENT_3D('',#253,#254,#255);
#180=EDGE_LOOP('',(#256));
#181=EDGE_LOOP('',(#257));
#182=AXIS2_PLACEMENT_3D('',#258,#259,#260);
#183=EDGE_LOOP('',(#261));
#184=AXIS2_PLACEMENT_3D('',#262,#263,#264);
#185=EDGE_LOOP('',(#265));
#186=EDGE_LOOP('',(#266));
#187=AXIS2_PLACEMENT_3D('',#267,#268,#269);
#188=EDGE_LOOP('',(#270));
#189=AXIS2_PLACEMENT_3D('',#271,#272,#273);
#190=EDGE_LOOP('',(#274));
#191=EDGE_LOOP('',(#275));
#192=AXIS2_PLACEMENT_3D('',#276,#277,#278);
#193=EDGE_LOOP('',(#279));
#194=EDGE_LOOP('',(#280));
#195=AXIS2_PLACEMENT_3D('',#281,#282,#283);
#196=EDGE_LOOP('',(#284));
#197=EDGE_LOOP('',(#285));
#198=AXIS2_PLACEMENT_3D('',#286,#287,#288);
#199=EDGE_LOOP('',(#289));
#200=EDGE_LOOP('',(#290));
#201=AXIS2_PLACEMENT_3D('',#291,#292,#293);
#202=EDGE_LOOP('',(#294));
#203=EDGE_LOOP('',(#295));
#204=AXIS2_PLACEMENT_3D('',#296,#297,#298);
#205=EDGE_LOOP('',(#299));
#206=EDGE_LOOP('',(#300));
#207=AXIS2_PLACEMENT_3D('',#301,#302,#303);
#208=EDGE_LOOP('',(#304));
#209=EDGE_LOOP('',(#305));
#210=AXIS2_PLACEMENT_3D('',#306,#307,#308);
#211=EDGE_LOOP('',(#309));
#212=EDGE_LOOP('',(#310));
#213=AXIS2_PLACEMENT_3D('',#311,#312,#313);
#214=EDGE_LOOP('',(#314));
#215=EDGE_LOOP('',(#315));
#216=AXIS2_PLACEMENT_3D('',#316,#317,#318);
#217=EDGE_LOOP('',(#319));
#218=EDGE_LOOP('',(#320));
#219=AXIS2_PLACEMENT_3D('',#321,#322,#323);
#220=EDGE_LOOP('',(#324));
#221=EDGE_LOOP('',(#325));
#222=AXIS2_PLACEMENT_3D('',#326,#327,#328);
#223=EDGE_LOOP('',(#329));
#224=EDGE_LOOP('',(#330));
#225=AXIS2_PLACEMENT_3D('',#331,#332,#333);
#226=ORIENTED_EDGE('',*,*,#334,.F.);
#227=ORIENTED_EDGE('',*,*,#335,.T.);
#228=CARTESIAN_POINT('',(3.30359676207173E-015,6.60719352414345E-015,-53.9518294478346));
#229=DIRECTION('',(-6.12323399573677E-017,-1.22464679914735E-016,1.0));
#230=DIRECTION('',(-1.23259516440783E-032,1.0,1.22464679914735E-016));
#231=ORIENTED_EDGE('',*,*,#336,.F.);
#232=ORIENTED_EDGE('',*,*,#334,.T.);
#233=CARTESIAN_POINT('',(3.98163290572783E-015,7.96326581145566E-015,-65.025));
#234=DIRECTION('',(-6.12323399573677E-017,-1.22464679914735E-016,1.0));
#235=DIRECTION('',(-1.23259516440783E-032,1.0,1.22464679914735E-016));
#236=ORIENTED_EDGE('',*,*,#337,.F.);
#237=ORIENTED_EDGE('',*,*,#336,.T.);
#238=CARTESIAN_POINT('',(4.55292326576866E-015,9.10584653153733E-015,-74.35487961));
#239=DIRECTION('',(-6.12323399573677E-017,-1.22464679914735E-016,1.0));
#240=DIRECTION('',(-1.23259516440783E-032,1.0,1.22464679914735E-016));
#241=ORIENTED_EDGE('',*,*,#338,.F.);
#242=ORIENTED_EDGE('',*,*,#337,.T.);
#243=CARTESIAN_POINT('',(5.17756869067354E-015,1.03551373813471E-014,-84.556113555));
#244=DIRECTION('',(-6.12323399573676E-017,-1.22464679914735E-016,1.0));
#245=DIRECTION('',(-1.23259516440783E-032,1.0,1.22464679914735E-016));
#246=ORIENTED_EDGE('',*,*,#339,.F.);
#247=ORIENTED_EDGE('',*,*,#338,.T.);
#248=CARTESIAN_POINT('',(5.40995279257316E-015,1.08199055851463E-014,-88.351233945));
#249=DIRECTION('',(-6.12323399573677E-017,-1.22464679914735E-016,1.0));
#250=DIRECTION('',(-1.23259516440783E-032,1.0,1.22464679914735E-016));
#251=ORIENTED_EDGE('',*,*,#340,.F.);
#252=ORIENTED_EDGE('',*,*,#339,.T.);
#253=CARTESIAN_POINT('',(5.46804795819293E-015,20.8274999958976,-89.3));
#254=DIRECTION('',(6.12323399573677E-017,1.22464679914735E-016,-1.0));
#255=DIRECTION('',(-1.23259516440783E-032,1.0,1.22464679914735E-016));
#256=ORIENTED_EDGE('',*,*,#341,.F.);
#257=ORIENTED_EDGE('',*,*,#340,.T.);
#258=CARTESIAN_POINT('',(5.48947927717801E-015,1.0978958554356E-014,-89.65));
#259=DIRECTION('',(-6.12323399573677E-017,-1.22464679914735E-016,1.0));
#260=DIRECTION('',(-1.23259516440783E-032,1.0,1.22464679914735E-016));
#261=ORIENTED_EDGE('',*,*,#341,.T.);
#262=CARTESIAN_POINT('',(5.51091059616309E-015,7.65000000000001,-90.0));
#263=DIRECTION('',(6.12323399573677E-017,1.22464679914735E-016,-1.0));
#264=DIRECTION('',(-1.23259516440783E-032,1.0,1.22464679914735E-016));
#265=ORIENTED_EDGE('',*,*,#335,.F.);
#266=ORIENTED_EDGE('',*,*,#342,.T.);
#267=CARTESIAN_POINT('',(2.65912638412775E-015,5.31825276825549E-015,-43.4268294495872));
#268=DIRECTION('',(6.12323399573677E-017,1.22464679914735E-016,-1.0));
#269=DIRECTION('',(-1.23259516440783E-032,1.0,1.22464679914735E-016));
#270=ORIENTED_EDGE('',*,*,#343,.F.);
#271=CARTESIAN_POINT('',(-1.53080849893419E-015,9.00000000052154,25.0));
#272=DIRECTION('',(-6.12323399573677E-017,2.72281284373556E-016,1.0));
#273=DIRECTION('',(-1.18452674380213E-032,-1.0,2.72281284373556E-016));
#274=ORIENTED_EDGE('',*,*,#344,.F.);
#275=ORIENTED_EDGE('',*,*,#343,.T.);
#276=CARTESIAN_POINT('',(-8.26636589424463E-016,-1.65327317884893E-015,13.5));
#277=DIRECTION('',(6.12323399573677E-017,1.22464679914735E-016,-1.0));
#278=DIRECTION('',(-1.23259516440783E-032,1.0,1.22464679914735E-016));
#279=ORIENTED_EDGE('',*,*,#345,.F.);
#280=ORIENTED_EDGE('',*,*,#344,.T.);
#281=CARTESIAN_POINT('',(-6.12323399573677E-017,-1.22464679914735E-016,1.0));
#282=DIRECTION('',(-6.12323399573677E-017,-1.22464679914735E-016,1.0));
#283=DIRECTION('',(-1.23259516440783E-032,1.0,1.22464679914735E-016));
#284=ORIENTED_EDGE('',*,*,#346,.F.);
#285=ORIENTED_EDGE('',*,*,#345,.T.);
#286=CARTESIAN_POINT('',(-2.72095382543029E-031,22.075,2.70340780911778E-015));
#287=DIRECTION('',(-6.12323399573677E-017,-1.22464679914735E-016,1.0));
#288=DIRECTION('',(1.23259516440783E-032,-1.0,-1.22464679914735E-016));
#289=ORIENTED_EDGE('',*,*,#347,.F.);
#290=ORIENTED_EDGE('',*,*,#346,.T.);
#291=CARTESIAN_POINT('',(4.47684973986342E-016,8.95369947972685E-016,-7.311250465));
#292=DIRECTION('',(-6.12323399573677E-017,-1.22464679914735E-016,1.0));
#293=DIRECTION('',(-1.23259516440783E-032,1.0,1.22464679914735E-016));
#294=ORIENTED_EDGE('',*,*,#348,.F.);
#295=ORIENTED_EDGE('',*,*,#347,.T.);
#296=CARTESIAN_POINT('',(9.41370714892619E-016,1.88274142978524E-015,-15.373750465));
#297=DIRECTION('',(-6.12323399573676E-017,-1.22464679914735E-016,1.0));
#298=DIRECTION('',(-1.23259516440783E-032,1.0,1.22464679914735E-016));
#299=ORIENTED_EDGE('',*,*,#349,.F.);
#300=ORIENTED_EDGE('',*,*,#348,.T.);
#301=CARTESIAN_POINT('',(9.87371481812553E-016,21.94879763,-16.125));
#302=DIRECTION('',(6.12323399573677E-017,1.22464679914735E-016,-1.0));
#303=DIRECTION('',(-1.23259516440783E-032,1.0,1.22464679914735E-016));
#304=ORIENTED_EDGE('',*,*,#350,.F.);
#305=ORIENTED_EDGE('',*,*,#349,.T.);
#306=CARTESIAN_POINT('',(1.10218211923262E-015,2.20436423846524E-015,-18.0));
#307=DIRECTION('',(-6.12323399573677E-017,-1.22464679914735E-016,1.0));
#308=DIRECTION('',(-1.23259516440783E-032,1.0,1.22464679914735E-016));
#309=ORIENTED_EDGE('',*,*,#351,.F.);
#310=ORIENTED_EDGE('',*,*,#350,.T.);
#311=CARTESIAN_POINT('',(1.21699275665268E-015,21.94879763,-19.875));
#312=DIRECTION('',(-6.12323399573677E-017,-1.22464679914735E-016,1.0));
#313=DIRECTION('',(1.23259516440783E-032,-1.0,-1.22464679914735E-016));
#314=ORIENTED_EDGE('',*,*,#352,.F.);
#315=ORIENTED_EDGE('',*,*,#351,.T.);
#316=CARTESIAN_POINT('',(1.26299352357262E-015,2.52598704714523E-015,-20.626249535));
#317=DIRECTION('',(6.12323399573676E-017,1.22464679914735E-016,-1.0));
#318=DIRECTION('',(-1.23259516440783E-032,1.0,1.22464679914735E-016));
#319=ORIENTED_EDGE('',*,*,#353,.F.);
#320=ORIENTED_EDGE('',*,*,#352,.T.);
#321=CARTESIAN_POINT('',(1.45051756469206E-015,2.90103512938411E-015,-23.688749535));
#322=DIRECTION('',(-6.12323399573677E-017,-1.22464679914735E-016,1.0));
#323=DIRECTION('',(-1.23259516440783E-032,1.0,1.22464679914735E-016));
#324=ORIENTED_EDGE('',*,*,#354,.F.);
#325=ORIENTED_EDGE('',*,*,#353,.T.);
#326=CARTESIAN_POINT('',(1.59204083889156E-015,22.9,-26.0));
#327=DIRECTION('',(6.12323399573677E-017,1.22464679914735E-016,-1.0));
#328=DIRECTION('',(-1.23259516440783E-032,1.0,1.22464679914735E-016));
#329=ORIENTED_EDGE('',*,*,#342,.F.);
#330=ORIENTED_EDGE('',*,*,#354,.T.);
#331=CARTESIAN_POINT('',(2.08189955865782E-015,4.16379911731563E-015,-34.0000000017526));
#332=DIRECTION('',(-6.12323399573677E-017,-1.22464679914735E-016,1.0));
#333=DIRECTION('',(-1.23259516440783E-032,1.0,1.22464679914735E-016));
#334=EDGE_CURVE('',#355,#355,#356,.T.);
#335=EDGE_CURVE('',#357,#357,#358,.T.);
#336=EDGE_CURVE('',#359,#359,#360,.T.);
#337=EDGE_CURVE('',#361,#361,#362,.T.);
#338=EDGE_CURVE('',#363,#363,#364,.T.);
#339=EDGE_CURVE('',#365,#365,#366,.T.);
#340=EDGE_CURVE('',#367,#367,#368,.T.);
#341=EDGE_CURVE('',#369,#369,#370,.T.);
#342=EDGE_CURVE('',#371,#371,#372,.T.);
#343=EDGE_CURVE('',#373,#373,#374,.T.);
#344=EDGE_CURVE('',#375,#375,#376,.T.);
#345=EDGE_CURVE('',#377,#377,#378,.T.);
#346=EDGE_CURVE('',#379,#379,#380,.T.);
#347=EDGE_CURVE('',#381,#381,#382,.T.);
#348=EDGE_CURVE('',#383,#383,#384,.T.);
#349=EDGE_CURVE('',#385,#385,#386,.T.);
#350=EDGE_CURVE('',#387,#387,#388,.T.);
#351=EDGE_CURVE('',#389,#389,#390,.T.);
#352=EDGE_CURVE('',#391,#391,#392,.T.);
#353=EDGE_CURVE('',#393,#393,#394,.T.);
#354=EDGE_CURVE('',#395,#395,#396,.T.);
#355=VERTEX_POINT('',#397);
#356=CIRCLE('',#398,31.45);
#357=VERTEX_POINT('',#399);
#358=CIRCLE('',#400,31.45);
#359=VERTEX_POINT('',#401);
#360=CIRCLE('',#402,27.5);
#361=VERTEX_POINT('',#403);
#362=CIRCLE('',#404,27.5);
#363=VERTEX_POINT('',#405);
#364=CIRCLE('',#406,26.75054068);
#365=VERTEX_POINT('',#407);
#366=CIRCLE('',#408,25.6549999917951);
#367=VERTEX_POINT('',#409);
#368=CIRCLE('',#410,16.0);
#369=VERTEX_POINT('',#411);
#370=CIRCLE('',#412,15.3);
#371=VERTEX_POINT('',#413);
#372=CIRCLE('',#414,20.8);
#373=VERTEX_POINT('',#415);
#374=CIRCLE('',#416,18.0000000010431);
#375=VERTEX_POINT('',#417);
#376=CIRCLE('',#418,19.15);
#377=VERTEX_POINT('',#419);
#378=CIRCLE('',#420,19.15);
#379=VERTEX_POINT('',#421);
#380=CIRCLE('',#422,25.0);
#381=VERTEX_POINT('',#423);
#382=CIRCLE('',#424,25.0);
#383=VERTEX_POINT('',#425);
#384=CIRCLE('',#426,22.39759526);
#385=VERTEX_POINT('',#427);
#386=CIRCLE('',#428,21.5);
#387=VERTEX_POINT('',#429);
#388=CIRCLE('',#430,21.5);
#389=VERTEX_POINT('',#431);
#390=CIRCLE('',#432,22.39759526);
#391=VERTEX_POINT('',#433);
#392=CIRCLE('',#434,25.0);
#393=VERTEX_POINT('',#435);
#394=CIRCLE('',#436,25.0);
#395=VERTEX_POINT('',#437);
#396=CIRCLE('',#438,20.8);
#397=CARTESIAN_POINT('',(3.86069903431203E-015,31.45,-63.05));
#398=AXIS2_PLACEMENT_3D('',#439,#440,#441);
#399=CARTESIAN_POINT('',(2.74649448983142E-015,31.45,-44.8536588956692));
#400=AXIS2_PLACEMENT_3D('',#442,#443,#444);
#401=CARTESIAN_POINT('',(4.10256677714363E-015,27.5,-67.0));
#402=AXIS2_PLACEMENT_3D('',#445,#446,#447);
#403=CARTESIAN_POINT('',(5.0032797543937E-015,27.5,-81.70975922));
#404=AXIS2_PLACEMENT_3D('',#448,#449,#450);
#405=CARTESIAN_POINT('',(5.35185762695339E-015,26.75054068,-87.40246789));
#406=AXIS2_PLACEMENT_3D('',#451,#452,#453);
#407=CARTESIAN_POINT('',(5.46804795819293E-015,25.6549999917951,-89.3));
#408=AXIS2_PLACEMENT_3D('',#454,#455,#456);
#409=CARTESIAN_POINT('',(5.46804795819293E-015,16.0,-89.3));
#410=AXIS2_PLACEMENT_3D('',#457,#458,#459);
#411=CARTESIAN_POINT('',(5.51091059616309E-015,15.3,-90.0));
#412=AXIS2_PLACEMENT_3D('',#460,#461,#462);
#413=CARTESIAN_POINT('',(2.57175827842407E-015,20.8,-42.0000000035052));
#414=AXIS2_PLACEMENT_3D('',#463,#464,#465);
#415=CARTESIAN_POINT('',(-1.53080849893419E-015,18.0000000010431,25.0));
#416=AXIS2_PLACEMENT_3D('',#466,#467,#468);
#417=CARTESIAN_POINT('',(-1.22464679914736E-016,19.15,2.0));
#418=AXIS2_PLACEMENT_3D('',#469,#470,#471);
#419=CARTESIAN_POINT('',(-2.360419739841E-031,19.15,2.34519862036718E-015));
#420=AXIS2_PLACEMENT_3D('',#472,#473,#474);
#421=CARTESIAN_POINT('',(-3.08148791101958E-031,25.0,3.06161699786838E-015));
#422=AXIS2_PLACEMENT_3D('',#475,#476,#477);
#423=CARTESIAN_POINT('',(8.95369947972684E-016,25.0,-14.62250093));
#424=AXIS2_PLACEMENT_3D('',#478,#479,#480);
#425=CARTESIAN_POINT('',(9.87371481812553E-016,22.39759526,-16.125));
#426=AXIS2_PLACEMENT_3D('',#481,#482,#483);
#427=CARTESIAN_POINT('',(9.87371481812553E-016,21.5,-16.125));
#428=AXIS2_PLACEMENT_3D('',#484,#485,#486);
#429=CARTESIAN_POINT('',(1.21699275665268E-015,21.5,-19.875));
#430=AXIS2_PLACEMENT_3D('',#487,#488,#489);
#431=CARTESIAN_POINT('',(1.21699275665268E-015,22.39759526,-19.875));
#432=AXIS2_PLACEMENT_3D('',#490,#491,#492);
#433=CARTESIAN_POINT('',(1.30899429049255E-015,25.0,-21.37749907));
#434=AXIS2_PLACEMENT_3D('',#493,#494,#495);
#435=CARTESIAN_POINT('',(1.59204083889156E-015,25.0,-26.0));
#436=AXIS2_PLACEMENT_3D('',#496,#497,#498);
#437=CARTESIAN_POINT('',(1.59204083889156E-015,20.8,-26.0));
#438=AXIS2_PLACEMENT_3D('',#499,#500,#501);
#439=CARTESIAN_POINT('',(3.86069903431203E-015,7.72139806862406E-015,-63.05));
#440=DIRECTION('',(6.12323399573677E-017,1.22464679914735E-016,-1.0));
#441=DIRECTION('',(-1.23259516440783E-032,1.0,1.22464679914735E-016));
#442=CARTESIAN_POINT('',(2.74649448983142E-015,5.49298897966284E-015,-44.8536588956692));
#443=DIRECTION('',(6.12323399573677E-017,1.22464679914735E-016,-1.0));
#444=DIRECTION('',(-1.23259516440783E-032,1.0,1.22464679914735E-016));
#445=CARTESIAN_POINT('',(4.10256677714363E-015,8.20513355428726E-015,-67.0));
#446=DIRECTION('',(6.12323399573677E-017,1.22464679914735E-016,-1.0));
#447=DIRECTION('',(-1.23259516440783E-032,1.0,1.22464679914735E-016));
#448=CARTESIAN_POINT('',(5.0032797543937E-015,1.00065595087874E-014,-81.70975922));
#449=DIRECTION('',(6.12323399573677E-017,1.22464679914735E-016,-1.0));
#450=DIRECTION('',(-1.23259516440783E-032,1.0,1.22464679914735E-016));
#451=CARTESIAN_POINT('',(5.35185762695339E-015,1.07037152539068E-014,-87.40246789));
#452=DIRECTION('',(6.12323399573677E-017,1.22464679914735E-016,-1.0));
#453=DIRECTION('',(-1.23259516440783E-032,1.0,1.22464679914735E-016));
#454=CARTESIAN_POINT('',(5.46804795819293E-015,1.09360959163859E-014,-89.3));
#455=DIRECTION('',(6.12323399573677E-017,1.22464679914735E-016,-1.0));
#456=DIRECTION('',(-1.23259516440783E-032,1.0,1.22464679914735E-016));
#457=CARTESIAN_POINT('',(5.46804795819293E-015,1.09360959163859E-014,-89.3));
#458=DIRECTION('',(6.12323399573677E-017,1.22464679914735E-016,-1.0));
#459=DIRECTION('',(-1.23259516440783E-032,1.0,1.22464679914735E-016));
#460=CARTESIAN_POINT('',(5.51091059616309E-015,1.10218211923262E-014,-90.0));
#461=DIRECTION('',(6.12323399573676E-017,1.22464679914735E-016,-1.0));
#462=DIRECTION('',(-1.23259516440783E-032,1.0,1.22464679914735E-016));
#463=CARTESIAN_POINT('',(2.57175827842407E-015,5.14351655684814E-015,-42.0000000035052));
#464=DIRECTION('',(6.12323399573677E-017,1.22464679914735E-016,-1.0));
#465=DIRECTION('',(-1.23259516440783E-032,1.0,1.22464679914735E-016));
#466=CARTESIAN_POINT('',(-1.53080849893419E-015,-3.06161699786838E-015,25.0));
#467=DIRECTION('',(6.12323399573677E-017,1.22464679914735E-016,-1.0));
#468=DIRECTION('',(-1.23259516440783E-032,1.0,1.22464679914735E-016));
#469=CARTESIAN_POINT('',(-1.22464679914735E-016,-2.44929359829471E-016,2.0));
#470=DIRECTION('',(6.12323399573677E-017,1.22464679914735E-016,-1.0));
#471=DIRECTION('',(-1.23259516440783E-032,1.0,1.22464679914735E-016));
#472=CARTESIAN_POINT('',(0.0,0.0,0.0));
#473=DIRECTION('',(6.12323399573677E-017,1.22464679914735E-016,-1.0));
#474=DIRECTION('',(-1.23259516440783E-032,1.0,1.22464679914735E-016));
#475=CARTESIAN_POINT('',(0.0,0.0,0.0));
#476=DIRECTION('',(6.12323399573677E-017,1.22464679914735E-016,-1.0));
#477=DIRECTION('',(-1.23259516440783E-032,1.0,1.22464679914735E-016));
#478=CARTESIAN_POINT('',(8.95369947972685E-016,1.79073989594537E-015,-14.62250093));
#479=DIRECTION('',(6.12323399573677E-017,1.22464679914735E-016,-1.0));
#480=DIRECTION('',(-1.23259516440783E-032,1.0,1.22464679914735E-016));
#481=CARTESIAN_POINT('',(9.87371481812554E-016,1.97474296362511E-015,-16.125));
#482=DIRECTION('',(6.12323399573677E-017,1.22464679914735E-016,-1.0));
#483=DIRECTION('',(-1.23259516440783E-032,1.0,1.22464679914735E-016));
#484=CARTESIAN_POINT('',(9.87371481812554E-016,1.97474296362511E-015,-16.125));
#485=DIRECTION('',(6.12323399573677E-017,1.22464679914735E-016,-1.0));
#486=DIRECTION('',(-1.23259516440783E-032,1.0,1.22464679914735E-016));
#487=CARTESIAN_POINT('',(1.21699275665268E-015,2.43398551330536E-015,-19.875));
#488=DIRECTION('',(6.12323399573677E-017,1.22464679914735E-016,-1.0));
#489=DIRECTION('',(-1.23259516440783E-032,1.0,1.22464679914735E-016));
#490=CARTESIAN_POINT('',(1.21699275665268E-015,2.43398551330536E-015,-19.875));
#491=DIRECTION('',(6.12323399573677E-017,1.22464679914735E-016,-1.0));
#492=DIRECTION('',(-1.23259516440783E-032,1.0,1.22464679914735E-016));
#493=CARTESIAN_POINT('',(1.30899429049255E-015,2.6179885809851E-015,-21.37749907));
#494=DIRECTION('',(6.12323399573677E-017,1.22464679914735E-016,-1.0));
#495=DIRECTION('',(-1.23259516440783E-032,1.0,1.22464679914735E-016));
#496=CARTESIAN_POINT('',(1.59204083889156E-015,3.18408167778312E-015,-26.0));
#497=DIRECTION('',(6.12323399573677E-017,1.22464679914735E-016,-1.0));
#498=DIRECTION('',(-1.23259516440783E-032,1.0,1.22464679914735E-016));
#499=CARTESIAN_POINT('',(1.59204083889156E-015,3.18408167778312E-015,-26.0));
#500=DIRECTION('',(6.12323399573677E-017,1.22464679914735E-016,-1.0));
#501=DIRECTION('',(-1.23259516440783E-032,1.0,1.22464679914735E-016));
ENDSEC;
END-ISO-10303-21;
