ISO-10303-21;
HEADER;
FILE_DESCRIPTION((''),'1');
FILE_NAME('//Big_tech03/bigt/Translate/11_3D_Field/02_Step_Field/62_\X2\30D530A730A430B930DF30EB30A230FC30D0\X0\/04_\X2\30D530A730A430B930DF30EB30A230FC30D0\X0\H\X2\578B\X0\ FMH/HSK/A50/HSK-A50-FMH27-60-90.stp','2013-08-01T00:59:45',(''),(''),'Spatial Interop R18','Kubotek KeyCreator V8.5.1 (14335)',' ');
FILE_SCHEMA(('CONFIG_CONTROL_DESIGN'));
ENDSEC;
DATA;
#1=DESIGN_CONTEXT('',#27,'design');
#2=APPLICATION_PROTOCOL_DEFINITION('INTERNATIONAL STANDARD','config_control_design',1994,#27);
#3=PRODUCT_CATEGORY_RELATIONSHIP('NONE','NONE',#28,#29);
#4=DATE_AND_TIME(#30,#31);
#5=DATE_TIME_ROLE('creation_date');
#6=DATE_TIME_ROLE('classification_date');
#7=PERSON_AND_ORGANIZATION_ROLE('creator');
#8=PERSON_AND_ORGANIZATION_ROLE('design_supplier');
#9=PERSON_AND_ORGANIZATION_ROLE('classification_officer');
#10=PERSON_AND_ORGANIZATION_ROLE('design_owner');
#11=APPROVAL_PERSON_ORGANIZATION(#32,#33,#34);
#12=APPROVAL_DATE_TIME(#4,#33);
#13=CC_DESIGN_APPROVAL(#33,(#35,#36,#37));
#14=CC_DESIGN_DATE_AND_TIME_ASSIGNMENT(#4,#5,(#37));
#15=CC_DESIGN_DATE_AND_TIME_ASSIGNMENT(#4,#6,(#35));
#16=CC_DESIGN_PERSON_AND_ORGANIZATION_ASSIGNMENT(#32,#10,(#38));
#17=CC_DESIGN_PERSON_AND_ORGANIZATION_ASSIGNMENT(#32,#7,(#37));
#18=CC_DESIGN_PERSON_AND_ORGANIZATION_ASSIGNMENT(#32,#7,(#36));
#19=CC_DESIGN_PERSON_AND_ORGANIZATION_ASSIGNMENT(#32,#8,(#36));
#20=CC_DESIGN_SECURITY_CLASSIFICATION(#35,(#36));
#21=CC_DESIGN_PERSON_AND_ORGANIZATION_ASSIGNMENT(#32,#9,(#35));
#22=SHAPE_DEFINITION_REPRESENTATION(#39,#40);
#23= (GEOMETRIC_REPRESENTATION_CONTEXT(3)GLOBAL_UNCERTAINTY_ASSIGNED_CONTEXT((#43))GLOBAL_UNIT_ASSIGNED_CONTEXT((#45,#46,#47))REPRESENTATION_CONTEXT('NONE','WORKSPACE'));
#27=APPLICATION_CONTEXT('CONFIGURATION CONTROLLED 3D DESIGNS OF MECHANICAL PARTS AND ASSEMBLIES');
#28=PRODUCT_CATEGORY('part','NONE');
#29=PRODUCT_RELATED_PRODUCT_CATEGORY('detail',' ',(#38));
#30=CALENDAR_DATE(2013,1,7);
#31=LOCAL_TIME(9,59,45.0,#49);
#32=PERSON_AND_ORGANIZATION(#50,#51);
#33=APPROVAL(#52,'SOLID MODEL');
#34=APPROVAL_ROLE('APPROVED');
#35=SECURITY_CLASSIFICATION('','',#53);
#36=PRODUCT_DEFINITION_FORMATION_WITH_SPECIFIED_SOURCE(' ','NONE',#38,.NOT_KNOWN.);
#37=PRODUCT_DEFINITION('NONE','NONE',#36,#1);
#38=PRODUCT('1','1','PART-1-DESC',(#54));
#39=PRODUCT_DEFINITION_SHAPE('NONE','NONE',#37);
#40=ADVANCED_BREP_SHAPE_REPRESENTATION('1',(#55,#56),#23);
#43=UNCERTAINTY_MEASURE_WITH_UNIT(LENGTH_MEASURE(1.0E-006),#45,'','');
#45= (CONVERSION_BASED_UNIT('MILLIMETRE',#59)LENGTH_UNIT()NAMED_UNIT(#62));
#46= (NAMED_UNIT(#64)PLANE_ANGLE_UNIT()SI_UNIT($,.RADIAN.));
#47= (NAMED_UNIT(#64)SOLID_ANGLE_UNIT()SI_UNIT($,.STERADIAN.));
#49=COORDINATED_UNIVERSAL_TIME_OFFSET(9,0,.AHEAD.);
#50=PERSON('','UNSPECIFIED',$,$,$,$);
#51=ORGANIZATION('UNSPECIFIED','UNSPECIFIED','UNSPECIFIED');
#52=APPROVAL_STATUS('approved');
#53=SECURITY_CLASSIFICATION_LEVEL('unclassified');
#54=MECHANICAL_CONTEXT('',#27,'mechanical');
#55=MANIFOLD_SOLID_BREP('1',#70);
#56=AXIS2_PLACEMENT_3D('',#71,#72,#73);
#59=LENGTH_MEASURE_WITH_UNIT(LENGTH_MEASURE(1.0),#74);
#62=DIMENSIONAL_EXPONENTS(1.0,0.0,0.0,0.0,0.0,0.0,0.0);
#64=DIMENSIONAL_EXPONENTS(0.0,0.0,0.0,0.0,0.0,0.0,0.0);
#70=CLOSED_SHELL('',(#75,#76,#77,#78,#79,#80,#81,#82,#83,#84,#85,#86,#87,#88,#89,#90,#91,#92));
#71=CARTESIAN_POINT('',(0.0,0.0,0.0));
#72=DIRECTION('',(0.0,0.0,1.0));
#73=DIRECTION('',(1.0,0.0,0.0));
#74= (NAMED_UNIT(#62)LENGTH_UNIT()SI_UNIT(.MILLI.,.METRE.));
#75=ADVANCED_FACE('',(#94),#95,.T.);
#76=ADVANCED_FACE('',(#96,#97),#98,.T.);
#77=ADVANCED_FACE('',(#99,#100),#101,.T.);
#78=ADVANCED_FACE('',(#102,#103),#104,.T.);
#79=ADVANCED_FACE('',(#105,#106),#107,.T.);
#80=ADVANCED_FACE('',(#108,#109),#110,.T.);
#81=ADVANCED_FACE('',(#111,#112),#113,.T.);
#82=ADVANCED_FACE('',(#114,#115),#116,.T.);
#83=ADVANCED_FACE('',(#117,#118),#119,.T.);
#84=ADVANCED_FACE('',(#120,#121),#122,.T.);
#85=ADVANCED_FACE('',(#123,#124),#125,.T.);
#86=ADVANCED_FACE('',(#126,#127),#128,.T.);
#87=ADVANCED_FACE('',(#129,#130),#131,.T.);
#88=ADVANCED_FACE('',(#132,#133),#134,.T.);
#89=ADVANCED_FACE('',(#135,#136),#137,.T.);
#90=ADVANCED_FACE('',(#138,#139),#140,.T.);
#91=ADVANCED_FACE('',(#141,#142),#143,.T.);
#92=ADVANCED_FACE('',(#144),#145,.T.);
#94=FACE_OUTER_BOUND('',#146,.T.);
#95=PLANE('',#147);
#96=FACE_BOUND('',#148,.T.);
#97=FACE_BOUND('',#149,.T.);
#98=CYLINDRICAL_SURFACE('',#150,13.5);
#99=FACE_OUTER_BOUND('',#151,.T.);
#100=FACE_BOUND('',#152,.T.);
#101=PLANE('',#153);
#102=FACE_BOUND('',#154,.T.);
#103=FACE_BOUND('',#155,.T.);
#104=CYLINDRICAL_SURFACE('',#156,30.0);
#105=FACE_BOUND('',#157,.T.);
#106=FACE_BOUND('',#158,.T.);
#107=CONICAL_SURFACE('',#159,25.4000000000002,1.22173047639603);
#108=FACE_BOUND('',#160,.T.);
#109=FACE_BOUND('',#161,.T.);
#110=CYLINDRICAL_SURFACE('',#162,20.7999999999996);
#111=FACE_OUTER_BOUND('',#163,.T.);
#112=FACE_BOUND('',#164,.T.);
#113=PLANE('',#165);
#114=FACE_BOUND('',#166,.T.);
#115=FACE_BOUND('',#167,.T.);
#116=CYLINDRICAL_SURFACE('',#168,25.0);
#117=FACE_BOUND('',#169,.T.);
#118=FACE_BOUND('',#170,.T.);
#119=CONICAL_SURFACE('',#171,23.69879763,1.04719755326566);
#120=FACE_BOUND('',#172,.T.);
#121=FACE_OUTER_BOUND('',#173,.T.);
#122=PLANE('',#174);
#123=FACE_BOUND('',#175,.T.);
#124=FACE_BOUND('',#176,.T.);
#125=CYLINDRICAL_SURFACE('',#177,21.5);
#126=FACE_OUTER_BOUND('',#178,.T.);
#127=FACE_BOUND('',#179,.T.);
#128=PLANE('',#180);
#129=FACE_BOUND('',#181,.T.);
#130=FACE_BOUND('',#182,.T.);
#131=CONICAL_SURFACE('',#183,23.69879763,1.04719755326565);
#132=FACE_BOUND('',#184,.T.);
#133=FACE_BOUND('',#185,.T.);
#134=CYLINDRICAL_SURFACE('',#186,25.0);
#135=FACE_BOUND('',#187,.T.);
#136=FACE_OUTER_BOUND('',#188,.T.);
#137=PLANE('',#189);
#138=FACE_BOUND('',#190,.T.);
#139=FACE_BOUND('',#191,.T.);
#140=CYLINDRICAL_SURFACE('',#192,19.15);
#141=FACE_BOUND('',#193,.T.);
#142=FACE_BOUND('',#194,.T.);
#143=CONICAL_SURFACE('',#195,18.5750000005215,0.049958395676703);
#144=FACE_OUTER_BOUND('',#196,.T.);
#145=PLANE('',#197);
#146=EDGE_LOOP('',(#198));
#147=AXIS2_PLACEMENT_3D('',#199,#200,#201);
#148=EDGE_LOOP('',(#202));
#149=EDGE_LOOP('',(#203));
#150=AXIS2_PLACEMENT_3D('',#204,#205,#206);
#151=EDGE_LOOP('',(#207));
#152=EDGE_LOOP('',(#208));
#153=AXIS2_PLACEMENT_3D('',#209,#210,#211);
#154=EDGE_LOOP('',(#212));
#155=EDGE_LOOP('',(#213));
#156=AXIS2_PLACEMENT_3D('',#214,#215,#216);
#157=EDGE_LOOP('',(#217));
#158=EDGE_LOOP('',(#218));
#159=AXIS2_PLACEMENT_3D('',#219,#220,#221);
#160=EDGE_LOOP('',(#222));
#161=EDGE_LOOP('',(#223));
#162=AXIS2_PLACEMENT_3D('',#224,#225,#226);
#163=EDGE_LOOP('',(#227));
#164=EDGE_LOOP('',(#228));
#165=AXIS2_PLACEMENT_3D('',#229,#230,#231);
#166=EDGE_LOOP('',(#232));
#167=EDGE_LOOP('',(#233));
#168=AXIS2_PLACEMENT_3D('',#234,#235,#236);
#169=EDGE_LOOP('',(#237));
#170=EDGE_LOOP('',(#238));
#171=AXIS2_PLACEMENT_3D('',#239,#240,#241);
#172=EDGE_LOOP('',(#242));
#173=EDGE_LOOP('',(#243));
#174=AXIS2_PLACEMENT_3D('',#244,#245,#246);
#175=EDGE_LOOP('',(#247));
#176=EDGE_LOOP('',(#248));
#177=AXIS2_PLACEMENT_3D('',#249,#250,#251);
#178=EDGE_LOOP('',(#252));
#179=EDGE_LOOP('',(#253));
#180=AXIS2_PLACEMENT_3D('',#254,#255,#256);
#181=EDGE_LOOP('',(#257));
#182=EDGE_LOOP('',(#258));
#183=AXIS2_PLACEMENT_3D('',#259,#260,#261);
#184=EDGE_LOOP('',(#262));
#185=EDGE_LOOP('',(#263));
#186=AXIS2_PLACEMENT_3D('',#264,#265,#266);
#187=EDGE_LOOP('',(#267));
#188=EDGE_LOOP('',(#268));
#189=AXIS2_PLACEMENT_3D('',#269,#270,#271);
#190=EDGE_LOOP('',(#272));
#191=EDGE_LOOP('',(#273));
#192=AXIS2_PLACEMENT_3D('',#274,#275,#276);
#193=EDGE_LOOP('',(#277));
#194=EDGE_LOOP('',(#278));
#195=AXIS2_PLACEMENT_3D('',#279,#280,#281);
#196=EDGE_LOOP('',(#282));
#197=AXIS2_PLACEMENT_3D('',#283,#284,#285);
#198=ORIENTED_EDGE('',*,*,#286,.F.);
#199=CARTESIAN_POINT('',(6.73555739531044E-015,6.75,-110.0));
#200=DIRECTION('',(6.12323399573677E-017,1.22464679914735E-016,-1.0));
#201=DIRECTION('',(1.23259516440783E-032,-1.0,-1.22464679914735E-016));
#202=ORIENTED_EDGE('',*,*,#287,.F.);
#203=ORIENTED_EDGE('',*,*,#286,.T.);
#204=CARTESIAN_POINT('',(6.12323399573677E-015,5.52350344414705E-016,-100.0));
#205=DIRECTION('',(6.12323399573677E-017,2.96542223983954E-017,-1.0));
#206=DIRECTION('',(-6.64295015783896E-033,1.0,2.96542223983954E-017));
#207=ORIENTED_EDGE('',*,*,#288,.F.);
#208=ORIENTED_EDGE('',*,*,#287,.T.);
#209=CARTESIAN_POINT('',(5.51091059616309E-015,21.75,-90.0));
#210=DIRECTION('',(6.12323399573677E-017,1.22464679914735E-016,-1.0));
#211=DIRECTION('',(1.23259516440783E-032,-1.0,-1.22464679914735E-016));
#212=ORIENTED_EDGE('',*,*,#289,.F.);
#213=ORIENTED_EDGE('',*,*,#288,.T.);
#214=CARTESIAN_POINT('',(5.06233858249395E-015,3.85690885024891E-017,-82.6742630776244));
#215=DIRECTION('',(6.12323399573677E-017,2.96542223983954E-017,-1.0));
#216=DIRECTION('',(-6.64295015783896E-033,1.0,2.96542223983954E-017));
#217=ORIENTED_EDGE('',*,*,#290,.F.);
#218=ORIENTED_EDGE('',*,*,#289,.T.);
#219=CARTESIAN_POINT('',(4.51124752287763E-015,-2.28318913083071E-016,-73.6742630776243));
#220=DIRECTION('',(6.12323399573677E-017,2.96542223983954E-017,-1.0));
#221=DIRECTION('',(-6.64295015783896E-033,1.0,2.96542223983954E-017));
#222=ORIENTED_EDGE('',*,*,#291,.F.);
#223=ORIENTED_EDGE('',*,*,#290,.T.);
#224=CARTESIAN_POINT('',(3.00038465791101E-015,-9.60014997903463E-016,-48.9999999999999));
#225=DIRECTION('',(6.12323399573677E-017,2.96542223983954E-017,-1.0));
#226=DIRECTION('',(-6.64295015783896E-033,1.0,2.96542223983954E-017));
#227=ORIENTED_EDGE('',*,*,#292,.F.);
#228=ORIENTED_EDGE('',*,*,#291,.T.);
#229=CARTESIAN_POINT('',(1.59204083889156E-015,22.8999999999994,-26.0));
#230=DIRECTION('',(6.12323399573677E-017,1.22464679914735E-016,-1.0));
#231=DIRECTION('',(1.23259516440783E-032,-1.0,-1.22464679914735E-016));
#232=ORIENTED_EDGE('',*,*,#293,.F.);
#233=ORIENTED_EDGE('',*,*,#292,.T.);
#234=CARTESIAN_POINT('',(1.45051756469206E-015,-1.71060044837406E-015,-23.688749535));
#235=DIRECTION('',(6.12323399573676E-017,2.96542223983954E-017,-1.0));
#236=DIRECTION('',(-6.64295015783896E-033,1.0,2.96542223983954E-017));
#237=ORIENTED_EDGE('',*,*,#294,.F.);
#238=ORIENTED_EDGE('',*,*,#293,.T.);
#239=CARTESIAN_POINT('',(1.26299352357262E-015,-1.80141650446915E-015,-20.626249535));
#240=DIRECTION('',(6.12323399573677E-017,2.96542223983954E-017,-1.0));
#241=DIRECTION('',(-6.64295015783896E-033,1.0,2.96542223983954E-017));
#242=ORIENTED_EDGE('',*,*,#295,.F.);
#243=ORIENTED_EDGE('',*,*,#294,.T.);
#244=CARTESIAN_POINT('',(1.21699275665268E-015,21.94879763,-19.875));
#245=DIRECTION('',(-6.12323399573677E-017,-1.22464679914735E-016,1.0));
#246=DIRECTION('',(-1.23259516440783E-032,1.0,1.22464679914735E-016));
#247=ORIENTED_EDGE('',*,*,#296,.F.);
#248=ORIENTED_EDGE('',*,*,#295,.T.);
#249=CARTESIAN_POINT('',(1.10218211923262E-015,-1.87929589225372E-015,-18.0));
#250=DIRECTION('',(6.12323399573676E-017,2.96542223983954E-017,-1.0));
#251=DIRECTION('',(-6.64295015783896E-033,1.0,2.96542223983954E-017));
#252=ORIENTED_EDGE('',*,*,#297,.F.);
#253=ORIENTED_EDGE('',*,*,#296,.T.);
#254=CARTESIAN_POINT('',(9.87371481812553E-016,21.94879763,-16.125));
#255=DIRECTION('',(6.12323399573677E-017,1.22464679914735E-016,-1.0));
#256=DIRECTION('',(1.23259516440783E-032,-1.0,-1.22464679914735E-016));
#257=ORIENTED_EDGE('',*,*,#298,.F.);
#258=ORIENTED_EDGE('',*,*,#297,.T.);
#259=CARTESIAN_POINT('',(9.41370714892619E-016,-1.95717528003829E-015,-15.373750465));
#260=DIRECTION('',(-6.12323399573677E-017,-2.96542223983954E-017,1.0));
#261=DIRECTION('',(-6.64295015783896E-033,1.0,2.96542223983954E-017));
#262=ORIENTED_EDGE('',*,*,#299,.F.);
#263=ORIENTED_EDGE('',*,*,#298,.T.);
#264=CARTESIAN_POINT('',(4.47684973986342E-016,-2.19626244812535E-015,-7.311250465));
#265=DIRECTION('',(6.12323399573676E-017,2.96542223983954E-017,-1.0));
#266=DIRECTION('',(-6.64295015783896E-033,1.0,2.96542223983954E-017));
#267=ORIENTED_EDGE('',*,*,#300,.F.);
#268=ORIENTED_EDGE('',*,*,#299,.T.);
#269=CARTESIAN_POINT('',(-2.72095382543029E-031,22.075,2.70340780911778E-015));
#270=DIRECTION('',(-6.12323399573677E-017,-1.22464679914735E-016,1.0));
#271=DIRECTION('',(-1.23259516440783E-032,1.0,1.22464679914735E-016));
#272=ORIENTED_EDGE('',*,*,#301,.F.);
#273=ORIENTED_EDGE('',*,*,#300,.T.);
#274=CARTESIAN_POINT('',(-6.12323399573679E-017,-2.44272611782323E-015,1.0));
#275=DIRECTION('',(6.12323399573677E-017,2.96542223983954E-017,-1.0));
#276=DIRECTION('',(-6.64295015783896E-033,1.0,2.96542223983954E-017));
#277=ORIENTED_EDGE('',*,*,#302,.F.);
#278=ORIENTED_EDGE('',*,*,#301,.T.);
#279=CARTESIAN_POINT('',(-8.26636589424464E-016,-2.81340389780317E-015,13.5));
#280=DIRECTION('',(6.12323399573676E-017,2.96542223983954E-017,-1.0));
#281=DIRECTION('',(-6.64295015783896E-033,1.0,2.96542223983954E-017));
#282=ORIENTED_EDGE('',*,*,#302,.T.);
#283=CARTESIAN_POINT('',(-1.53080849893419E-015,9.00000000052153,25.0));
#284=DIRECTION('',(-6.12323399573677E-017,-1.22464679914735E-016,1.0));
#285=DIRECTION('',(-1.23259516440783E-032,1.0,1.22464679914735E-016));
#286=EDGE_CURVE('',#303,#303,#304,.T.);
#287=EDGE_CURVE('',#305,#305,#306,.T.);
#288=EDGE_CURVE('',#307,#307,#308,.T.);
#289=EDGE_CURVE('',#309,#309,#310,.T.);
#290=EDGE_CURVE('',#311,#311,#312,.T.);
#291=EDGE_CURVE('',#313,#313,#314,.T.);
#292=EDGE_CURVE('',#315,#315,#316,.T.);
#293=EDGE_CURVE('',#317,#317,#318,.T.);
#294=EDGE_CURVE('',#319,#319,#320,.T.);
#295=EDGE_CURVE('',#321,#321,#322,.T.);
#296=EDGE_CURVE('',#323,#323,#324,.T.);
#297=EDGE_CURVE('',#325,#325,#326,.T.);
#298=EDGE_CURVE('',#327,#327,#328,.T.);
#299=EDGE_CURVE('',#329,#329,#330,.T.);
#300=EDGE_CURVE('',#331,#331,#332,.T.);
#301=EDGE_CURVE('',#333,#333,#334,.T.);
#302=EDGE_CURVE('',#335,#335,#336,.T.);
#303=VERTEX_POINT('',#337);
#304=CIRCLE('',#338,13.5);
#305=VERTEX_POINT('',#339);
#306=CIRCLE('',#340,13.5);
#307=VERTEX_POINT('',#341);
#308=CIRCLE('',#342,30.0);
#309=VERTEX_POINT('',#343);
#310=CIRCLE('',#344,30.0);
#311=VERTEX_POINT('',#345);
#312=CIRCLE('',#346,20.8000000000004);
#313=VERTEX_POINT('',#347);
#314=CIRCLE('',#348,20.7999999999989);
#315=VERTEX_POINT('',#349);
#316=CIRCLE('',#350,25.0);
#317=VERTEX_POINT('',#351);
#318=CIRCLE('',#352,25.0);
#319=VERTEX_POINT('',#353);
#320=CIRCLE('',#354,22.39759526);
#321=VERTEX_POINT('',#355);
#322=CIRCLE('',#356,21.5);
#323=VERTEX_POINT('',#357);
#324=CIRCLE('',#358,21.5);
#325=VERTEX_POINT('',#359);
#326=CIRCLE('',#360,22.39759526);
#327=VERTEX_POINT('',#361);
#328=CIRCLE('',#362,25.0);
#329=VERTEX_POINT('',#363);
#330=CIRCLE('',#364,25.0);
#331=VERTEX_POINT('',#365);
#332=CIRCLE('',#366,19.15);
#333=VERTEX_POINT('',#367);
#334=CIRCLE('',#368,19.15);
#335=VERTEX_POINT('',#369);
#336=CIRCLE('',#370,18.0000000010431);
#337=CARTESIAN_POINT('',(6.73555739531044E-015,13.5,-110.0));
#338=AXIS2_PLACEMENT_3D('',#371,#372,#373);
#339=CARTESIAN_POINT('',(5.51091059616309E-015,13.5,-90.0));
#340=AXIS2_PLACEMENT_3D('',#374,#375,#376);
#341=CARTESIAN_POINT('',(5.51091059616309E-015,30.0,-90.0));
#342=AXIS2_PLACEMENT_3D('',#377,#378,#379);
#343=CARTESIAN_POINT('',(4.6137665688248E-015,30.0,-75.3485261552488));
#344=AXIS2_PLACEMENT_3D('',#380,#381,#382);
#345=CARTESIAN_POINT('',(4.40872847693046E-015,20.8000000000004,-71.9999999999998));
#346=AXIS2_PLACEMENT_3D('',#383,#384,#385);
#347=CARTESIAN_POINT('',(1.59204083889156E-015,20.7999999999989,-26.0));
#348=AXIS2_PLACEMENT_3D('',#386,#387,#388);
#349=CARTESIAN_POINT('',(1.59204083889156E-015,25.0,-26.0));
#350=AXIS2_PLACEMENT_3D('',#389,#390,#391);
#351=CARTESIAN_POINT('',(1.30899429049255E-015,25.0,-21.37749907));
#352=AXIS2_PLACEMENT_3D('',#392,#393,#394);
#353=CARTESIAN_POINT('',(1.21699275665268E-015,22.39759526,-19.875));
#354=AXIS2_PLACEMENT_3D('',#395,#396,#397);
#355=CARTESIAN_POINT('',(1.21699275665268E-015,21.5,-19.875));
#356=AXIS2_PLACEMENT_3D('',#398,#399,#400);
#357=CARTESIAN_POINT('',(9.87371481812553E-016,21.5,-16.125));
#358=AXIS2_PLACEMENT_3D('',#401,#402,#403);
#359=CARTESIAN_POINT('',(9.87371481812553E-016,22.39759526,-16.125));
#360=AXIS2_PLACEMENT_3D('',#404,#405,#406);
#361=CARTESIAN_POINT('',(8.95369947972684E-016,25.0,-14.62250093));
#362=AXIS2_PLACEMENT_3D('',#407,#408,#409);
#363=CARTESIAN_POINT('',(-3.08148791101958E-031,25.0,3.06161699786838E-015));
#364=AXIS2_PLACEMENT_3D('',#410,#411,#412);
#365=CARTESIAN_POINT('',(-2.360419739841E-031,19.15,2.34519862036718E-015));
#366=AXIS2_PLACEMENT_3D('',#413,#414,#415);
#367=CARTESIAN_POINT('',(-1.22464679914736E-016,19.15,2.0));
#368=AXIS2_PLACEMENT_3D('',#416,#417,#418);
#369=CARTESIAN_POINT('',(-1.53080849893419E-015,18.0000000010431,25.0));
#370=AXIS2_PLACEMENT_3D('',#419,#420,#421);
#371=CARTESIAN_POINT('',(6.73555739531044E-015,8.4889256839866E-016,-110.0));
#372=DIRECTION('',(-6.12323399573677E-017,-2.96542223983954E-017,1.0));
#373=DIRECTION('',(-6.64295015783896E-033,1.0,2.96542223983954E-017));
#374=CARTESIAN_POINT('',(5.51091059616309E-015,2.5580812043075E-016,-90.0));
#375=DIRECTION('',(-6.12323399573676E-017,-2.96542223983954E-017,1.0));
#376=DIRECTION('',(-6.64295015783896E-033,1.0,2.96542223983954E-017));
#377=CARTESIAN_POINT('',(5.51091059616309E-015,2.5580812043075E-016,-90.0));
#378=DIRECTION('',(-6.12323399573677E-017,-2.96542223983954E-017,1.0));
#379=DIRECTION('',(-6.64295015783896E-033,1.0,2.96542223983954E-017));
#380=CARTESIAN_POINT('',(4.6137665688248E-015,-1.78669943425775E-016,-75.3485261552488));
#381=DIRECTION('',(-6.12323399573677E-017,-2.96542223983954E-017,1.0));
#382=DIRECTION('',(-6.64295015783896E-033,1.0,2.96542223983954E-017));
#383=CARTESIAN_POINT('',(4.40872847693046E-015,-2.7796788274037E-016,-71.9999999999998));
#384=DIRECTION('',(-6.12323399573677E-017,-2.96542223983954E-017,1.0));
#385=DIRECTION('',(-6.64295015783896E-033,1.0,2.96542223983954E-017));
#386=CARTESIAN_POINT('',(1.59204083889156E-015,-1.64206211306655E-015,-26.0));
#387=DIRECTION('',(-6.12323399573677E-017,-2.96542223983954E-017,1.0));
#388=DIRECTION('',(-6.64295015783896E-033,1.0,2.96542223983954E-017));
#389=CARTESIAN_POINT('',(1.59204083889156E-015,-1.64206211306655E-015,-26.0));
#390=DIRECTION('',(-6.12323399573676E-017,-2.96542223983954E-017,1.0));
#391=DIRECTION('',(-6.64295015783896E-033,1.0,2.96542223983954E-017));
#392=CARTESIAN_POINT('',(1.30899429049255E-015,-1.77913878368156E-015,-21.37749907));
#393=DIRECTION('',(-6.12323399573676E-017,-2.96542223983954E-017,1.0));
#394=DIRECTION('',(-6.64295015783896E-033,1.0,2.96542223983954E-017));
#395=CARTESIAN_POINT('',(1.21699275665268E-015,-1.82369422525673E-015,-19.875));
#396=DIRECTION('',(-6.12323399573677E-017,-2.96542223983954E-017,1.0));
#397=DIRECTION('',(-6.64295015783896E-033,1.0,2.96542223983954E-017));
#398=CARTESIAN_POINT('',(1.21699275665268E-015,-1.82369422525673E-015,-19.875));
#399=DIRECTION('',(-6.12323399573676E-017,-2.96542223983954E-017,1.0));
#400=DIRECTION('',(-6.64295015783896E-033,1.0,2.96542223983954E-017));
#401=CARTESIAN_POINT('',(9.87371481812554E-016,-1.93489755925071E-015,-16.125));
#402=DIRECTION('',(-6.12323399573676E-017,-2.96542223983954E-017,1.0));
#403=DIRECTION('',(-6.64295015783896E-033,1.0,2.96542223983954E-017));
#404=CARTESIAN_POINT('',(9.87371481812554E-016,-1.93489755925071E-015,-16.125));
#405=DIRECTION('',(-6.12323399573677E-017,-2.96542223983954E-017,1.0));
#406=DIRECTION('',(-6.64295015783896E-033,1.0,2.96542223983954E-017));
#407=CARTESIAN_POINT('',(8.95369947972685E-016,-1.97945300082587E-015,-14.62250093));
#408=DIRECTION('',(-6.12323399573676E-017,-2.96542223983954E-017,1.0));
#409=DIRECTION('',(-6.64295015783896E-033,1.0,2.96542223983954E-017));
#410=CARTESIAN_POINT('',(-2.17540971751503E-031,-2.41307189542484E-015,3.5527136788005E-015));
#411=DIRECTION('',(-6.12323399573676E-017,-2.96542223983954E-017,1.0));
#412=DIRECTION('',(-6.64295015783896E-033,1.0,2.96542223983954E-017));
#413=CARTESIAN_POINT('',(-2.17540971751503E-031,-2.41307189542484E-015,3.5527136788005E-015));
#414=DIRECTION('',(-6.12323399573677E-017,-2.96542223983954E-017,1.0));
#415=DIRECTION('',(-6.64295015783896E-033,1.0,2.96542223983954E-017));
#416=CARTESIAN_POINT('',(-1.22464679914736E-016,-2.47238034022163E-015,2.0));
#417=DIRECTION('',(-6.12323399573677E-017,-2.96542223983954E-017,1.0));
#418=DIRECTION('',(-6.64295015783896E-033,1.0,2.96542223983954E-017));
#419=CARTESIAN_POINT('',(-1.53080849893419E-015,-3.15442745538472E-015,25.0));
#420=DIRECTION('',(-6.12323399573676E-017,-2.96542223983954E-017,1.0));
#421=DIRECTION('',(-6.64295015783896E-033,1.0,2.96542223983954E-017));
ENDSEC;
END-ISO-10303-21;
