ISO-10303-21;
HEADER;
FILE_DESCRIPTION((''),'1');
FILE_NAME('W:/Translate/21_\X2\8F2A90ED7DDA\X0\-DXF/01_\X2\30E130AC30C130E330C330AF30B730EA30FC30BA\X0\/01_\X2\30E130AC30DE30A430AF30ED30C130E330C330AF\X0\ MEGA-S/HSK/A 40/HSK-A40-MEGA6S-75T.stp','2012-04-23T07:53:38',(''),(''),'Spatial Interop R18','Kubotek KeyCreator V8.5.1 (14335)',' ');
FILE_SCHEMA(('CONFIG_CONTROL_DESIGN'));
ENDSEC;
DATA;
#1=DESIGN_CONTEXT('',#27,'design');
#2=APPLICATION_PROTOCOL_DEFINITION('INTERNATIONAL STANDARD','config_control_design',1994,#27);
#3=PRODUCT_CATEGORY_RELATIONSHIP('NONE','NONE',#28,#29);
#4=DATE_AND_TIME(#30,#31);
#5=DATE_TIME_ROLE('creation_date');
#6=DATE_TIME_ROLE('classification_date');
#7=PERSON_AND_ORGANIZATION_ROLE('creator');
#8=PERSON_AND_ORGANIZATION_ROLE('design_supplier');
#9=PERSON_AND_ORGANIZATION_ROLE('classification_officer');
#10=PERSON_AND_ORGANIZATION_ROLE('design_owner');
#11=APPROVAL_PERSON_ORGANIZATION(#32,#33,#34);
#12=APPROVAL_DATE_TIME(#4,#33);
#13=CC_DESIGN_APPROVAL(#33,(#35,#36,#37));
#14=CC_DESIGN_DATE_AND_TIME_ASSIGNMENT(#4,#5,(#37));
#15=CC_DESIGN_DATE_AND_TIME_ASSIGNMENT(#4,#6,(#35));
#16=CC_DESIGN_PERSON_AND_ORGANIZATION_ASSIGNMENT(#32,#10,(#38));
#17=CC_DESIGN_PERSON_AND_ORGANIZATION_ASSIGNMENT(#32,#7,(#37));
#18=CC_DESIGN_PERSON_AND_ORGANIZATION_ASSIGNMENT(#32,#7,(#36));
#19=CC_DESIGN_PERSON_AND_ORGANIZATION_ASSIGNMENT(#32,#8,(#36));
#20=CC_DESIGN_SECURITY_CLASSIFICATION(#35,(#36));
#21=CC_DESIGN_PERSON_AND_ORGANIZATION_ASSIGNMENT(#32,#9,(#35));
#22=SHAPE_DEFINITION_REPRESENTATION(#39,#40);
#23= (GEOMETRIC_REPRESENTATION_CONTEXT(3)GLOBAL_UNCERTAINTY_ASSIGNED_CONTEXT((#43))GLOBAL_UNIT_ASSIGNED_CONTEXT((#45,#46,#47))REPRESENTATION_CONTEXT('NONE','WORKSPACE'));
#27=APPLICATION_CONTEXT('CONFIGURATION CONTROLLED 3D DESIGNS OF MECHANICAL PARTS AND ASSEMBLIES');
#28=PRODUCT_CATEGORY('part','NONE');
#29=PRODUCT_RELATED_PRODUCT_CATEGORY('detail',' ',(#38));
#30=CALENDAR_DATE(2012,23,3);
#31=LOCAL_TIME(16,53,38.0,#49);
#32=PERSON_AND_ORGANIZATION(#50,#51);
#33=APPROVAL(#52,'SOLID MODEL');
#34=APPROVAL_ROLE('APPROVED');
#35=SECURITY_CLASSIFICATION('','',#53);
#36=PRODUCT_DEFINITION_FORMATION_WITH_SPECIFIED_SOURCE(' ','NONE',#38,.NOT_KNOWN.);
#37=PRODUCT_DEFINITION('NONE','NONE',#36,#1);
#38=PRODUCT('1','1','PART-1-DESC',(#54));
#39=PRODUCT_DEFINITION_SHAPE('NONE','NONE',#37);
#40=ADVANCED_BREP_SHAPE_REPRESENTATION('1',(#55,#56),#23);
#43=UNCERTAINTY_MEASURE_WITH_UNIT(LENGTH_MEASURE(1.0E-006),#45,'','');
#45= (CONVERSION_BASED_UNIT('MILLIMETRE',#59)LENGTH_UNIT()NAMED_UNIT(#62));
#46= (NAMED_UNIT(#64)PLANE_ANGLE_UNIT()SI_UNIT($,.RADIAN.));
#47= (NAMED_UNIT(#64)SOLID_ANGLE_UNIT()SI_UNIT($,.STERADIAN.));
#49=COORDINATED_UNIVERSAL_TIME_OFFSET(9,0,.AHEAD.);
#50=PERSON('','UNSPECIFIED',$,$,$,$);
#51=ORGANIZATION('UNSPECIFIED','UNSPECIFIED','UNSPECIFIED');
#52=APPROVAL_STATUS('approved');
#53=SECURITY_CLASSIFICATION_LEVEL('unclassified');
#54=MECHANICAL_CONTEXT('',#27,'mechanical');
#55=MANIFOLD_SOLID_BREP('1',#70);
#56=AXIS2_PLACEMENT_3D('',#71,#72,#73);
#59=LENGTH_MEASURE_WITH_UNIT(LENGTH_MEASURE(1.0),#74);
#62=DIMENSIONAL_EXPONENTS(1.0,0.0,0.0,0.0,0.0,0.0,0.0);
#64=DIMENSIONAL_EXPONENTS(0.0,0.0,0.0,0.0,0.0,0.0,0.0);
#70=CLOSED_SHELL('',(#75,#76,#77,#78,#79,#80,#81,#82,#83,#84,#85,#86,#87,#88,#89,#90,#91,#92,#93,#94,#95,#96,#97));
#71=CARTESIAN_POINT('',(0.0,0.0,0.0));
#72=DIRECTION('',(0.0,0.0,1.0));
#73=DIRECTION('',(1.0,0.0,0.0));
#74= (NAMED_UNIT(#62)LENGTH_UNIT()SI_UNIT(.MILLI.,.METRE.));
#75=ADVANCED_FACE('',(#99,#100),#101,.T.);
#76=ADVANCED_FACE('',(#102,#103),#104,.T.);
#77=ADVANCED_FACE('',(#105,#106),#107,.T.);
#78=ADVANCED_FACE('',(#108,#109),#110,.T.);
#79=ADVANCED_FACE('',(#111,#112),#113,.T.);
#80=ADVANCED_FACE('',(#114,#115),#116,.T.);
#81=ADVANCED_FACE('',(#117,#118),#119,.T.);
#82=ADVANCED_FACE('',(#120,#121),#122,.T.);
#83=ADVANCED_FACE('',(#123,#124),#125,.T.);
#84=ADVANCED_FACE('',(#126,#127),#128,.T.);
#85=ADVANCED_FACE('',(#129,#130),#131,.T.);
#86=ADVANCED_FACE('',(#132,#133),#134,.T.);
#87=ADVANCED_FACE('',(#135,#136),#137,.T.);
#88=ADVANCED_FACE('',(#138,#139),#140,.T.);
#89=ADVANCED_FACE('',(#141,#142),#143,.T.);
#90=ADVANCED_FACE('',(#144,#145),#146,.T.);
#91=ADVANCED_FACE('',(#147,#148),#149,.T.);
#92=ADVANCED_FACE('',(#150,#151),#152,.T.);
#93=ADVANCED_FACE('',(#153,#154),#155,.T.);
#94=ADVANCED_FACE('',(#156,#157),#158,.T.);
#95=ADVANCED_FACE('',(#159),#160,.T.);
#96=ADVANCED_FACE('',(#161),#162,.T.);
#97=ADVANCED_FACE('',(#163,#164),#165,.T.);
#99=FACE_BOUND('',#166,.T.);
#100=FACE_BOUND('',#167,.T.);
#101=CYLINDRICAL_SURFACE('',#168,15.1);
#102=FACE_OUTER_BOUND('',#169,.T.);
#103=FACE_BOUND('',#170,.T.);
#104=PLANE('',#171);
#105=FACE_BOUND('',#172,.T.);
#106=FACE_BOUND('',#173,.T.);
#107=CYLINDRICAL_SURFACE('',#174,20.0);
#108=FACE_BOUND('',#175,.T.);
#109=FACE_BOUND('',#176,.T.);
#110=CONICAL_SURFACE('',#177,19.116025405,1.04719755151904);
#111=FACE_BOUND('',#178,.T.);
#112=FACE_OUTER_BOUND('',#179,.T.);
#113=PLANE('',#180);
#114=FACE_BOUND('',#181,.T.);
#115=FACE_BOUND('',#182,.T.);
#116=CYLINDRICAL_SURFACE('',#183,17.4);
#117=FACE_OUTER_BOUND('',#184,.T.);
#118=FACE_BOUND('',#185,.T.);
#119=PLANE('',#186);
#120=FACE_BOUND('',#187,.T.);
#121=FACE_BOUND('',#188,.T.);
#122=CONICAL_SURFACE('',#189,19.116025405,1.04719755151904);
#123=FACE_BOUND('',#190,.T.);
#124=FACE_BOUND('',#191,.T.);
#125=CYLINDRICAL_SURFACE('',#192,20.0);
#126=FACE_BOUND('',#193,.T.);
#127=FACE_OUTER_BOUND('',#194,.T.);
#128=PLANE('',#195);
#129=FACE_BOUND('',#196,.T.);
#130=FACE_BOUND('',#197,.T.);
#131=CYLINDRICAL_SURFACE('',#198,16.8);
#132=FACE_BOUND('',#199,.T.);
#133=FACE_OUTER_BOUND('',#200,.T.);
#134=PLANE('',#201);
#135=FACE_BOUND('',#202,.T.);
#136=FACE_BOUND('',#203,.T.);
#137=CONICAL_SURFACE('',#204,10.8257296199801,0.829031395894922);
#138=FACE_BOUND('',#205,.T.);
#139=FACE_BOUND('',#206,.T.);
#140=CONICAL_SURFACE('',#207,8.16571872792106,0.0872664628646708);
#141=FACE_BOUND('',#208,.T.);
#142=FACE_BOUND('',#209,.T.);
#143=CONICAL_SURFACE('',#210,6.62499999294095,1.04719753824506);
#144=FACE_BOUND('',#211,.T.);
#145=FACE_BOUND('',#212,.T.);
#146=CYLINDRICAL_SURFACE('',#213,6.2500001);
#147=FACE_OUTER_BOUND('',#214,.T.);
#148=FACE_BOUND('',#215,.T.);
#149=PLANE('',#216);
#150=FACE_BOUND('',#217,.T.);
#151=FACE_BOUND('',#218,.T.);
#152=CYLINDRICAL_SURFACE('',#219,7.1499999);
#153=FACE_BOUND('',#220,.T.);
#154=FACE_BOUND('',#221,.T.);
#155=CONICAL_SURFACE('',#222,7.075,0.523598766806919);
#156=FACE_BOUND('',#223,.T.);
#157=FACE_BOUND('',#224,.T.);
#158=CYLINDRICAL_SURFACE('',#225,7.0000001);
#159=FACE_OUTER_BOUND('',#226,.T.);
#160=PLANE('',#227);
#161=FACE_OUTER_BOUND('',#228,.T.);
#162=PLANE('',#229);
#163=FACE_BOUND('',#230,.T.);
#164=FACE_BOUND('',#231,.T.);
#165=CONICAL_SURFACE('',#232,14.6500000023492,0.0499583954615709);
#166=EDGE_LOOP('',(#233));
#167=EDGE_LOOP('',(#234));
#168=AXIS2_PLACEMENT_3D('',#235,#236,#237);
#169=EDGE_LOOP('',(#238));
#170=EDGE_LOOP('',(#239));
#171=AXIS2_PLACEMENT_3D('',#240,#241,#242);
#172=EDGE_LOOP('',(#243));
#173=EDGE_LOOP('',(#244));
#174=AXIS2_PLACEMENT_3D('',#245,#246,#247);
#175=EDGE_LOOP('',(#248));
#176=EDGE_LOOP('',(#249));
#177=AXIS2_PLACEMENT_3D('',#250,#251,#252);
#178=EDGE_LOOP('',(#253));
#179=EDGE_LOOP('',(#254));
#180=AXIS2_PLACEMENT_3D('',#255,#256,#257);
#181=EDGE_LOOP('',(#258));
#182=EDGE_LOOP('',(#259));
#183=AXIS2_PLACEMENT_3D('',#260,#261,#262);
#184=EDGE_LOOP('',(#263));
#185=EDGE_LOOP('',(#264));
#186=AXIS2_PLACEMENT_3D('',#265,#266,#267);
#187=EDGE_LOOP('',(#268));
#188=EDGE_LOOP('',(#269));
#189=AXIS2_PLACEMENT_3D('',#270,#271,#272);
#190=EDGE_LOOP('',(#273));
#191=EDGE_LOOP('',(#274));
#192=AXIS2_PLACEMENT_3D('',#275,#276,#277);
#193=EDGE_LOOP('',(#278));
#194=EDGE_LOOP('',(#279));
#195=AXIS2_PLACEMENT_3D('',#280,#281,#282);
#196=EDGE_LOOP('',(#283));
#197=EDGE_LOOP('',(#284));
#198=AXIS2_PLACEMENT_3D('',#285,#286,#287);
#199=EDGE_LOOP('',(#288));
#200=EDGE_LOOP('',(#289));
#201=AXIS2_PLACEMENT_3D('',#290,#291,#292);
#202=EDGE_LOOP('',(#293));
#203=EDGE_LOOP('',(#294));
#204=AXIS2_PLACEMENT_3D('',#295,#296,#297);
#205=EDGE_LOOP('',(#298));
#206=EDGE_LOOP('',(#299));
#207=AXIS2_PLACEMENT_3D('',#300,#301,#302);
#208=EDGE_LOOP('',(#303));
#209=EDGE_LOOP('',(#304));
#210=AXIS2_PLACEMENT_3D('',#305,#306,#307);
#211=EDGE_LOOP('',(#308));
#212=EDGE_LOOP('',(#309));
#213=AXIS2_PLACEMENT_3D('',#310,#311,#312);
#214=EDGE_LOOP('',(#313));
#215=EDGE_LOOP('',(#314));
#216=AXIS2_PLACEMENT_3D('',#315,#316,#317);
#217=EDGE_LOOP('',(#318));
#218=EDGE_LOOP('',(#319));
#219=AXIS2_PLACEMENT_3D('',#320,#321,#322);
#220=EDGE_LOOP('',(#323));
#221=EDGE_LOOP('',(#324));
#222=AXIS2_PLACEMENT_3D('',#325,#326,#327);
#223=EDGE_LOOP('',(#328));
#224=EDGE_LOOP('',(#329));
#225=AXIS2_PLACEMENT_3D('',#330,#331,#332);
#226=EDGE_LOOP('',(#333));
#227=AXIS2_PLACEMENT_3D('',#334,#335,#336);
#228=EDGE_LOOP('',(#337));
#229=AXIS2_PLACEMENT_3D('',#338,#339,#340);
#230=EDGE_LOOP('',(#341));
#231=EDGE_LOOP('',(#342));
#232=AXIS2_PLACEMENT_3D('',#343,#344,#345);
#233=ORIENTED_EDGE('',*,*,#346,.F.);
#234=ORIENTED_EDGE('',*,*,#347,.T.);
#235=CARTESIAN_POINT('',(-6.12323399573677E-017,-1.22464679914735E-016,1.0));
#236=DIRECTION('',(-6.12323399573677E-017,-1.22464679914735E-016,1.0));
#237=DIRECTION('',(-1.23259516440783E-032,1.0,1.22464679914735E-016));
#238=ORIENTED_EDGE('',*,*,#348,.F.);
#239=ORIENTED_EDGE('',*,*,#346,.T.);
#240=CARTESIAN_POINT('',(-2.16320451353574E-031,17.55,2.1492551325036E-015));
#241=DIRECTION('',(-6.12323399573677E-017,-1.22464679914735E-016,1.0));
#242=DIRECTION('',(1.23259516440783E-032,-1.0,-1.22464679914735E-016));
#243=ORIENTED_EDGE('',*,*,#349,.F.);
#244=ORIENTED_EDGE('',*,*,#348,.T.);
#245=CARTESIAN_POINT('',(4.27991830799566E-016,8.55983661599131E-016,-6.98963703));
#246=DIRECTION('',(-6.12323399573677E-017,-1.22464679914735E-016,1.0));
#247=DIRECTION('',(-1.23259516440783E-032,1.0,1.22464679914735E-016));
#248=ORIENTED_EDGE('',*,*,#350,.F.);
#249=ORIENTED_EDGE('',*,*,#349,.T.);
#250=CARTESIAN_POINT('',(8.87234380479823E-016,1.77446876095965E-015,-14.48963703));
#251=DIRECTION('',(-6.12323399573677E-017,-1.22464679914735E-016,1.0));
#252=DIRECTION('',(-1.23259516440783E-032,1.0,1.22464679914735E-016));
#253=ORIENTED_EDGE('',*,*,#351,.F.);
#254=ORIENTED_EDGE('',*,*,#350,.T.);
#255=CARTESIAN_POINT('',(9.18485099360515E-016,17.816025405,-15.0));
#256=DIRECTION('',(6.12323399573677E-017,1.22464679914735E-016,-1.0));
#257=DIRECTION('',(-1.23259516440783E-032,1.0,1.22464679914735E-016));
#258=ORIENTED_EDGE('',*,*,#352,.F.);
#259=ORIENTED_EDGE('',*,*,#351,.T.);
#260=CARTESIAN_POINT('',(9.79717439317883E-016,1.95943487863577E-015,-16.0));
#261=DIRECTION('',(-6.12323399573677E-017,-1.22464679914735E-016,1.0));
#262=DIRECTION('',(-1.23259516440783E-032,1.0,1.22464679914735E-016));
#263=ORIENTED_EDGE('',*,*,#353,.F.);
#264=ORIENTED_EDGE('',*,*,#352,.T.);
#265=CARTESIAN_POINT('',(1.04094977927525E-015,17.816025405,-17.0));
#266=DIRECTION('',(-6.12323399573677E-017,-1.22464679914735E-016,1.0));
#267=DIRECTION('',(1.23259516440783E-032,-1.0,-1.22464679914735E-016));
#268=ORIENTED_EDGE('',*,*,#354,.F.);
#269=ORIENTED_EDGE('',*,*,#353,.T.);
#270=CARTESIAN_POINT('',(1.07220049815594E-015,2.14440099631188E-015,-17.51036297));
#271=DIRECTION('',(6.12323399573677E-017,1.22464679914735E-016,-1.0));
#272=DIRECTION('',(-1.23259516440783E-032,1.0,1.22464679914735E-016));
#273=ORIENTED_EDGE('',*,*,#355,.F.);
#274=ORIENTED_EDGE('',*,*,#354,.T.);
#275=CARTESIAN_POINT('',(1.16404900809199E-015,2.32809801618399E-015,-19.01036297));
#276=DIRECTION('',(-6.12323399573677E-017,-1.22464679914735E-016,1.0));
#277=DIRECTION('',(-1.23259516440783E-032,1.0,1.22464679914735E-016));
#278=ORIENTED_EDGE('',*,*,#356,.F.);
#279=ORIENTED_EDGE('',*,*,#355,.T.);
#280=CARTESIAN_POINT('',(1.22464679914735E-015,18.4,-20.0));
#281=DIRECTION('',(6.12323399573677E-017,1.22464679914735E-016,-1.0));
#282=DIRECTION('',(-1.23259516440783E-032,1.0,1.22464679914735E-016));
#283=ORIENTED_EDGE('',*,*,#357,.F.);
#284=ORIENTED_EDGE('',*,*,#356,.T.);
#285=CARTESIAN_POINT('',(1.45426807398748E-015,2.90853614797496E-015,-23.75));
#286=DIRECTION('',(-6.12323399573677E-017,-1.22464679914735E-016,1.0));
#287=DIRECTION('',(-1.23259516440783E-032,1.0,1.22464679914735E-016));
#288=ORIENTED_EDGE('',*,*,#358,.F.);
#289=ORIENTED_EDGE('',*,*,#357,.T.);
#290=CARTESIAN_POINT('',(1.68388934882761E-015,14.560010835,-27.5));
#291=DIRECTION('',(6.12323399573677E-017,1.22464679914735E-016,-1.0));
#292=DIRECTION('',(-1.23259516440783E-032,1.0,1.22464679914735E-016));
#293=ORIENTED_EDGE('',*,*,#359,.F.);
#294=ORIENTED_EDGE('',*,*,#358,.T.);
#295=CARTESIAN_POINT('',(1.76773273362005E-015,3.5354654672401E-015,-28.8692663852274));
#296=DIRECTION('',(-6.12323399573677E-017,-1.22464679914735E-016,1.0));
#297=DIRECTION('',(-1.23259516440783E-032,1.0,1.22464679914735E-016));
#298=ORIENTED_EDGE('',*,*,#360,.F.);
#299=ORIENTED_EDGE('',*,*,#359,.T.);
#300=CARTESIAN_POINT('',(2.66744973375781E-015,5.33489946751562E-015,-43.5627600646161));
#301=DIRECTION('',(-6.12323399573677E-017,-1.22464679914735E-016,1.0));
#302=DIRECTION('',(-1.23259516440783E-032,1.0,1.22464679914735E-016));
#303=ORIENTED_EDGE('',*,*,#361,.F.);
#304=ORIENTED_EDGE('',*,*,#360,.T.);
#305=CARTESIAN_POINT('',(3.49658053619892E-015,6.99316107239783E-015,-57.1034936543887));
#306=DIRECTION('',(-6.12323399573677E-017,-1.22464679914735E-016,1.0));
#307=DIRECTION('',(-1.23259516440783E-032,1.0,1.22464679914735E-016));
#308=ORIENTED_EDGE('',*,*,#362,.F.);
#309=ORIENTED_EDGE('',*,*,#361,.T.);
#310=CARTESIAN_POINT('',(3.53065672041101E-015,7.06131344082202E-015,-57.659999975));
#311=DIRECTION('',(-6.12323399573677E-017,-1.22464679914735E-016,1.0));
#312=DIRECTION('',(-1.23259516440783E-032,1.0,1.22464679914735E-016));
#313=ORIENTED_EDGE('',*,*,#363,.F.);
#314=ORIENTED_EDGE('',*,*,#362,.T.);
#315=CARTESIAN_POINT('',(3.55147571752732E-015,6.70000000000001,-58.0));
#316=DIRECTION('',(-6.12323399573677E-017,-1.22464679914735E-016,1.0));
#317=DIRECTION('',(1.23259516440783E-032,-1.0,-1.22464679914735E-016));
#318=ORIENTED_EDGE('',*,*,#364,.F.);
#319=ORIENTED_EDGE('',*,*,#363,.T.);
#320=CARTESIAN_POINT('',(3.61270805748469E-015,7.22541611496938E-015,-59.0));
#321=DIRECTION('',(-6.12323399573677E-017,-1.22464679914735E-016,1.0));
#322=DIRECTION('',(-1.23259516440783E-032,1.0,1.22464679914735E-016));
#323=ORIENTED_EDGE('',*,*,#365,.F.);
#324=ORIENTED_EDGE('',*,*,#364,.T.);
#325=CARTESIAN_POINT('',(3.68189470128824E-015,7.36378940257648E-015,-60.12990364));
#326=DIRECTION('',(-6.12323399573677E-017,-1.22464679914735E-016,1.0));
#327=DIRECTION('',(-1.23259516440783E-032,1.0,1.22464679914735E-016));
#328=ORIENTED_EDGE('',*,*,#366,.F.);
#329=ORIENTED_EDGE('',*,*,#365,.T.);
#330=CARTESIAN_POINT('',(4.1411372509685E-015,8.28227450193699E-015,-67.62990364));
#331=DIRECTION('',(-6.12323399573677E-017,-1.22464679914735E-016,1.0));
#332=DIRECTION('',(-1.23259516440783E-032,1.0,1.22464679914735E-016));
#333=ORIENTED_EDGE('',*,*,#366,.T.);
#334=CARTESIAN_POINT('',(4.59242549680257E-015,3.50000005000001,-75.0));
#335=DIRECTION('',(6.12323399573677E-017,1.22464679914735E-016,-1.0));
#336=DIRECTION('',(-1.23259516440783E-032,1.0,1.22464679914735E-016));
#337=ORIENTED_EDGE('',*,*,#367,.F.);
#338=CARTESIAN_POINT('',(-1.22464679914735E-015,7.10000000234919,20.0));
#339=DIRECTION('',(-6.12323399573677E-017,-1.22464679914735E-016,1.0));
#340=DIRECTION('',(1.23259516440783E-032,-1.0,-1.22464679914735E-016));
#341=ORIENTED_EDGE('',*,*,#347,.F.);
#342=ORIENTED_EDGE('',*,*,#367,.T.);
#343=CARTESIAN_POINT('',(-6.73555739531044E-016,-1.34711147906209E-015,11.0));
#344=DIRECTION('',(6.12323399573676E-017,1.22464679914735E-016,-1.0));
#345=DIRECTION('',(-1.23259516440783E-032,1.0,1.22464679914735E-016));
#346=EDGE_CURVE('',#368,#368,#369,.T.);
#347=EDGE_CURVE('',#370,#370,#371,.T.);
#348=EDGE_CURVE('',#372,#372,#373,.T.);
#349=EDGE_CURVE('',#374,#374,#375,.T.);
#350=EDGE_CURVE('',#376,#376,#377,.T.);
#351=EDGE_CURVE('',#378,#378,#379,.T.);
#352=EDGE_CURVE('',#380,#380,#381,.T.);
#353=EDGE_CURVE('',#382,#382,#383,.T.);
#354=EDGE_CURVE('',#384,#384,#385,.T.);
#355=EDGE_CURVE('',#386,#386,#387,.T.);
#356=EDGE_CURVE('',#388,#388,#389,.T.);
#357=EDGE_CURVE('',#390,#390,#391,.T.);
#358=EDGE_CURVE('',#392,#392,#393,.T.);
#359=EDGE_CURVE('',#394,#394,#395,.T.);
#360=EDGE_CURVE('',#396,#396,#397,.T.);
#361=EDGE_CURVE('',#398,#398,#399,.T.);
#362=EDGE_CURVE('',#400,#400,#401,.T.);
#363=EDGE_CURVE('',#402,#402,#403,.T.);
#364=EDGE_CURVE('',#404,#404,#405,.T.);
#365=EDGE_CURVE('',#406,#406,#407,.T.);
#366=EDGE_CURVE('',#408,#408,#409,.T.);
#367=EDGE_CURVE('',#410,#410,#411,.T.);
#368=VERTEX_POINT('',#412);
#369=CIRCLE('',#413,15.1);
#370=VERTEX_POINT('',#414);
#371=CIRCLE('',#415,15.1);
#372=VERTEX_POINT('',#416);
#373=CIRCLE('',#417,20.0);
#374=VERTEX_POINT('',#418);
#375=CIRCLE('',#419,20.0);
#376=VERTEX_POINT('',#420);
#377=CIRCLE('',#421,18.23205081);
#378=VERTEX_POINT('',#422);
#379=CIRCLE('',#423,17.4);
#380=VERTEX_POINT('',#424);
#381=CIRCLE('',#425,17.4);
#382=VERTEX_POINT('',#426);
#383=CIRCLE('',#427,18.23205081);
#384=VERTEX_POINT('',#428);
#385=CIRCLE('',#429,20.0);
#386=VERTEX_POINT('',#430);
#387=CIRCLE('',#431,20.0);
#388=VERTEX_POINT('',#432);
#389=CIRCLE('',#433,16.8);
#390=VERTEX_POINT('',#434);
#391=CIRCLE('',#435,16.8);
#392=VERTEX_POINT('',#436);
#393=CIRCLE('',#437,12.32002167);
#394=VERTEX_POINT('',#438);
#395=CIRCLE('',#439,9.33143756996021);
#396=VERTEX_POINT('',#440);
#397=CIRCLE('',#441,6.9999998858819);
#398=VERTEX_POINT('',#442);
#399=CIRCLE('',#443,6.2500001);
#400=VERTEX_POINT('',#444);
#401=CIRCLE('',#445,6.2500001);
#402=VERTEX_POINT('',#446);
#403=CIRCLE('',#447,7.1499999);
#404=VERTEX_POINT('',#448);
#405=CIRCLE('',#449,7.1499999);
#406=VERTEX_POINT('',#450);
#407=CIRCLE('',#451,7.0000001);
#408=VERTEX_POINT('',#452);
#409=CIRCLE('',#453,7.0000001);
#410=VERTEX_POINT('',#454);
#411=CIRCLE('',#455,14.2000000046984);
#412=CARTESIAN_POINT('',(-1.86121869825582E-031,15.1,1.8492166667125E-015));
#413=AXIS2_PLACEMENT_3D('',#456,#457,#458);
#414=CARTESIAN_POINT('',(-1.22464679914736E-016,15.1,2.0));
#415=AXIS2_PLACEMENT_3D('',#459,#460,#461);
#416=CARTESIAN_POINT('',(-2.46519032881566E-031,20.0,2.44929359829471E-015));
#417=AXIS2_PLACEMENT_3D('',#462,#463,#464);
#418=CARTESIAN_POINT('',(8.55983661599131E-016,20.0,-13.97927406));
#419=AXIS2_PLACEMENT_3D('',#465,#466,#467);
#420=CARTESIAN_POINT('',(9.18485099360515E-016,18.23205081,-15.0));
#421=AXIS2_PLACEMENT_3D('',#468,#469,#470);
#422=CARTESIAN_POINT('',(9.18485099360515E-016,17.4,-15.0));
#423=AXIS2_PLACEMENT_3D('',#471,#472,#473);
#424=CARTESIAN_POINT('',(1.04094977927525E-015,17.4,-17.0));
#425=AXIS2_PLACEMENT_3D('',#474,#475,#476);
#426=CARTESIAN_POINT('',(1.04094977927525E-015,18.23205081,-17.0));
#427=AXIS2_PLACEMENT_3D('',#477,#478,#479);
#428=CARTESIAN_POINT('',(1.10345121703663E-015,20.0,-18.02072594));
#429=AXIS2_PLACEMENT_3D('',#480,#481,#482);
#430=CARTESIAN_POINT('',(1.22464679914735E-015,20.0,-20.0));
#431=AXIS2_PLACEMENT_3D('',#483,#484,#485);
#432=CARTESIAN_POINT('',(1.22464679914735E-015,16.8,-20.0));
#433=AXIS2_PLACEMENT_3D('',#486,#487,#488);
#434=CARTESIAN_POINT('',(1.68388934882761E-015,16.8,-27.5));
#435=AXIS2_PLACEMENT_3D('',#489,#490,#491);
#436=CARTESIAN_POINT('',(1.68388934882761E-015,12.32002167,-27.5));
#437=AXIS2_PLACEMENT_3D('',#492,#493,#494);
#438=CARTESIAN_POINT('',(1.85157611841249E-015,9.33143756996022,-30.2385327704548));
#439=AXIS2_PLACEMENT_3D('',#495,#496,#497);
#440=CARTESIAN_POINT('',(3.48332334910313E-015,6.99999988588191,-56.8869873587774));
#441=AXIS2_PLACEMENT_3D('',#498,#499,#500);
#442=CARTESIAN_POINT('',(3.5098377232947E-015,6.25000010000001,-57.31999995));
#443=AXIS2_PLACEMENT_3D('',#501,#502,#503);
#444=CARTESIAN_POINT('',(3.55147571752732E-015,6.25000010000001,-58.0));
#445=AXIS2_PLACEMENT_3D('',#504,#505,#506);
#446=CARTESIAN_POINT('',(3.55147571752732E-015,7.14999990000001,-58.0));
#447=AXIS2_PLACEMENT_3D('',#507,#508,#509);
#448=CARTESIAN_POINT('',(3.67394039744206E-015,7.14999990000001,-60.0));
#449=AXIS2_PLACEMENT_3D('',#510,#511,#512);
#450=CARTESIAN_POINT('',(3.68984900513442E-015,7.0000001,-60.25980728));
#451=AXIS2_PLACEMENT_3D('',#513,#514,#515);
#452=CARTESIAN_POINT('',(4.59242549680257E-015,7.00000010000001,-75.0));
#453=AXIS2_PLACEMENT_3D('',#516,#517,#518);
#454=CARTESIAN_POINT('',(-1.22464679914735E-015,14.2000000046984,20.0));
#455=AXIS2_PLACEMENT_3D('',#519,#520,#521);
#456=CARTESIAN_POINT('',(0.0,0.0,0.0));
#457=DIRECTION('',(6.12323399573677E-017,1.22464679914735E-016,-1.0));
#458=DIRECTION('',(-1.23259516440783E-032,1.0,1.22464679914735E-016));
#459=CARTESIAN_POINT('',(-1.22464679914735E-016,-2.44929359829471E-016,2.0));
#460=DIRECTION('',(6.12323399573677E-017,1.22464679914735E-016,-1.0));
#461=DIRECTION('',(-1.23259516440783E-032,1.0,1.22464679914735E-016));
#462=CARTESIAN_POINT('',(0.0,0.0,0.0));
#463=DIRECTION('',(6.12323399573677E-017,1.22464679914735E-016,-1.0));
#464=DIRECTION('',(-1.23259516440783E-032,1.0,1.22464679914735E-016));
#465=CARTESIAN_POINT('',(8.55983661599131E-016,1.71196732319826E-015,-13.97927406));
#466=DIRECTION('',(6.12323399573677E-017,1.22464679914735E-016,-1.0));
#467=DIRECTION('',(-1.23259516440783E-032,1.0,1.22464679914735E-016));
#468=CARTESIAN_POINT('',(9.18485099360515E-016,1.83697019872103E-015,-15.0));
#469=DIRECTION('',(6.12323399573677E-017,1.22464679914735E-016,-1.0));
#470=DIRECTION('',(-1.23259516440783E-032,1.0,1.22464679914735E-016));
#471=CARTESIAN_POINT('',(9.18485099360515E-016,1.83697019872103E-015,-15.0));
#472=DIRECTION('',(6.12323399573677E-017,1.22464679914735E-016,-1.0));
#473=DIRECTION('',(-1.23259516440783E-032,1.0,1.22464679914735E-016));
#474=CARTESIAN_POINT('',(1.04094977927525E-015,2.0818995585505E-015,-17.0));
#475=DIRECTION('',(6.12323399573677E-017,1.22464679914735E-016,-1.0));
#476=DIRECTION('',(-1.23259516440783E-032,1.0,1.22464679914735E-016));
#477=CARTESIAN_POINT('',(1.04094977927525E-015,2.0818995585505E-015,-17.0));
#478=DIRECTION('',(6.12323399573677E-017,1.22464679914735E-016,-1.0));
#479=DIRECTION('',(-1.23259516440783E-032,1.0,1.22464679914735E-016));
#480=CARTESIAN_POINT('',(1.10345121703663E-015,2.20690243407327E-015,-18.02072594));
#481=DIRECTION('',(6.12323399573677E-017,1.22464679914735E-016,-1.0));
#482=DIRECTION('',(-1.23259516440783E-032,1.0,1.22464679914735E-016));
#483=CARTESIAN_POINT('',(1.22464679914735E-015,2.44929359829471E-015,-20.0));
#484=DIRECTION('',(6.12323399573677E-017,1.22464679914735E-016,-1.0));
#485=DIRECTION('',(-1.23259516440783E-032,1.0,1.22464679914735E-016));
#486=CARTESIAN_POINT('',(1.22464679914735E-015,2.44929359829471E-015,-20.0));
#487=DIRECTION('',(6.12323399573677E-017,1.22464679914735E-016,-1.0));
#488=DIRECTION('',(-1.23259516440783E-032,1.0,1.22464679914735E-016));
#489=CARTESIAN_POINT('',(1.68388934882761E-015,3.36777869765522E-015,-27.5));
#490=DIRECTION('',(6.12323399573677E-017,1.22464679914735E-016,-1.0));
#491=DIRECTION('',(-1.23259516440783E-032,1.0,1.22464679914735E-016));
#492=CARTESIAN_POINT('',(1.68388934882761E-015,3.36777869765522E-015,-27.5));
#493=DIRECTION('',(6.12323399573677E-017,1.22464679914735E-016,-1.0));
#494=DIRECTION('',(-1.23259516440783E-032,1.0,1.22464679914735E-016));
#495=CARTESIAN_POINT('',(1.85157611841249E-015,3.70315223682498E-015,-30.2385327704548));
#496=DIRECTION('',(6.12323399573677E-017,1.22464679914735E-016,-1.0));
#497=DIRECTION('',(-1.23259516440783E-032,1.0,1.22464679914735E-016));
#498=CARTESIAN_POINT('',(3.48332334910313E-015,6.96664669820627E-015,-56.8869873587774));
#499=DIRECTION('',(6.12323399573677E-017,1.22464679914735E-016,-1.0));
#500=DIRECTION('',(-1.23259516440783E-032,1.0,1.22464679914735E-016));
#501=CARTESIAN_POINT('',(3.5098377232947E-015,7.01967544658939E-015,-57.31999995));
#502=DIRECTION('',(6.12323399573677E-017,1.22464679914735E-016,-1.0));
#503=DIRECTION('',(-1.23259516440783E-032,1.0,1.22464679914735E-016));
#504=CARTESIAN_POINT('',(3.55147571752732E-015,7.10295143505465E-015,-58.0));
#505=DIRECTION('',(6.12323399573677E-017,1.22464679914735E-016,-1.0));
#506=DIRECTION('',(-1.23259516440783E-032,1.0,1.22464679914735E-016));
#507=CARTESIAN_POINT('',(3.55147571752732E-015,7.10295143505465E-015,-58.0));
#508=DIRECTION('',(6.12323399573677E-017,1.22464679914735E-016,-1.0));
#509=DIRECTION('',(-1.23259516440783E-032,1.0,1.22464679914735E-016));
#510=CARTESIAN_POINT('',(3.67394039744206E-015,7.34788079488412E-015,-60.0));
#511=DIRECTION('',(6.12323399573677E-017,1.22464679914735E-016,-1.0));
#512=DIRECTION('',(-1.23259516440783E-032,1.0,1.22464679914735E-016));
#513=CARTESIAN_POINT('',(3.68984900513442E-015,7.37969801026883E-015,-60.25980728));
#514=DIRECTION('',(6.12323399573677E-017,1.22464679914735E-016,-1.0));
#515=DIRECTION('',(-1.23259516440783E-032,1.0,1.22464679914735E-016));
#516=CARTESIAN_POINT('',(4.59242549680257E-015,9.18485099360515E-015,-75.0));
#517=DIRECTION('',(6.12323399573677E-017,1.22464679914735E-016,-1.0));
#518=DIRECTION('',(-1.23259516440783E-032,1.0,1.22464679914735E-016));
#519=CARTESIAN_POINT('',(-1.22464679914735E-015,-2.44929359829471E-015,20.0));
#520=DIRECTION('',(6.12323399573677E-017,1.22464679914735E-016,-1.0));
#521=DIRECTION('',(-1.23259516440783E-032,1.0,1.22464679914735E-016));
ENDSEC;
END-ISO-10303-21;
