ISO-10303-21;
HEADER;
FILE_DESCRIPTION((''),'1');
FILE_NAME('W:/Translate/00_BIG-HP\X2\FF71FF6FFF8CFF9F\X0\2013/HSK-A40-MEGA10N-90.stp','2013-11-22T06:41:21',(''),(''),'Spatial Interop R18','Kubotek KeyCreator V8.5.1 (14335)',' ');
FILE_SCHEMA(('CONFIG_CONTROL_DESIGN'));
ENDSEC;
DATA;
#1=DESIGN_CONTEXT('',#27,'design');
#2=APPLICATION_PROTOCOL_DEFINITION('INTERNATIONAL STANDARD','config_control_design',1994,#27);
#3=PRODUCT_CATEGORY_RELATIONSHIP('NONE','NONE',#28,#29);
#4=DATE_AND_TIME(#30,#31);
#5=DATE_TIME_ROLE('creation_date');
#6=DATE_TIME_ROLE('classification_date');
#7=PERSON_AND_ORGANIZATION_ROLE('creator');
#8=PERSON_AND_ORGANIZATION_ROLE('design_supplier');
#9=PERSON_AND_ORGANIZATION_ROLE('classification_officer');
#10=PERSON_AND_ORGANIZATION_ROLE('design_owner');
#11=APPROVAL_PERSON_ORGANIZATION(#32,#33,#34);
#12=APPROVAL_DATE_TIME(#4,#33);
#13=CC_DESIGN_APPROVAL(#33,(#35,#36,#37));
#14=CC_DESIGN_DATE_AND_TIME_ASSIGNMENT(#4,#5,(#37));
#15=CC_DESIGN_DATE_AND_TIME_ASSIGNMENT(#4,#6,(#35));
#16=CC_DESIGN_PERSON_AND_ORGANIZATION_ASSIGNMENT(#32,#10,(#38));
#17=CC_DESIGN_PERSON_AND_ORGANIZATION_ASSIGNMENT(#32,#7,(#37));
#18=CC_DESIGN_PERSON_AND_ORGANIZATION_ASSIGNMENT(#32,#7,(#36));
#19=CC_DESIGN_PERSON_AND_ORGANIZATION_ASSIGNMENT(#32,#8,(#36));
#20=CC_DESIGN_SECURITY_CLASSIFICATION(#35,(#36));
#21=CC_DESIGN_PERSON_AND_ORGANIZATION_ASSIGNMENT(#32,#9,(#35));
#22=SHAPE_DEFINITION_REPRESENTATION(#39,#40);
#23= (GEOMETRIC_REPRESENTATION_CONTEXT(3)GLOBAL_UNCERTAINTY_ASSIGNED_CONTEXT((#43))GLOBAL_UNIT_ASSIGNED_CONTEXT((#45,#46,#47))REPRESENTATION_CONTEXT('NONE','WORKSPACE'));
#27=APPLICATION_CONTEXT('CONFIGURATION CONTROLLED 3D DESIGNS OF MECHANICAL PARTS AND ASSEMBLIES');
#28=PRODUCT_CATEGORY('part','NONE');
#29=PRODUCT_RELATED_PRODUCT_CATEGORY('detail',' ',(#38));
#30=CALENDAR_DATE(2013,22,10);
#31=LOCAL_TIME(15,41,21.0,#49);
#32=PERSON_AND_ORGANIZATION(#50,#51);
#33=APPROVAL(#52,'SOLID MODEL');
#34=APPROVAL_ROLE('APPROVED');
#35=SECURITY_CLASSIFICATION('','',#53);
#36=PRODUCT_DEFINITION_FORMATION_WITH_SPECIFIED_SOURCE(' ','NONE',#38,.NOT_KNOWN.);
#37=PRODUCT_DEFINITION('NONE','NONE',#36,#1);
#38=PRODUCT('1','1','PART-1-DESC',(#54));
#39=PRODUCT_DEFINITION_SHAPE('NONE','NONE',#37);
#40=ADVANCED_BREP_SHAPE_REPRESENTATION('1',(#55,#56),#23);
#43=UNCERTAINTY_MEASURE_WITH_UNIT(LENGTH_MEASURE(1.0E-006),#45,'','');
#45= (CONVERSION_BASED_UNIT('MILLIMETRE',#59)LENGTH_UNIT()NAMED_UNIT(#62));
#46= (NAMED_UNIT(#64)PLANE_ANGLE_UNIT()SI_UNIT($,.RADIAN.));
#47= (NAMED_UNIT(#64)SOLID_ANGLE_UNIT()SI_UNIT($,.STERADIAN.));
#49=COORDINATED_UNIVERSAL_TIME_OFFSET(9,0,.AHEAD.);
#50=PERSON('','UNSPECIFIED',$,$,$,$);
#51=ORGANIZATION('UNSPECIFIED','UNSPECIFIED','UNSPECIFIED');
#52=APPROVAL_STATUS('approved');
#53=SECURITY_CLASSIFICATION_LEVEL('unclassified');
#54=MECHANICAL_CONTEXT('',#27,'mechanical');
#55=MANIFOLD_SOLID_BREP('1',#70);
#56=AXIS2_PLACEMENT_3D('',#71,#72,#73);
#59=LENGTH_MEASURE_WITH_UNIT(LENGTH_MEASURE(1.0),#74);
#62=DIMENSIONAL_EXPONENTS(1.0,0.0,0.0,0.0,0.0,0.0,0.0);
#64=DIMENSIONAL_EXPONENTS(0.0,0.0,0.0,0.0,0.0,0.0,0.0);
#70=CLOSED_SHELL('',(#75,#76,#77,#78,#79,#80,#81,#82,#83,#84,#85,#86,#87,#88,#89,#90,#91,#92,#93,#94,#95,#96,#97));
#71=CARTESIAN_POINT('',(0.0,0.0,0.0));
#72=DIRECTION('',(0.0,0.0,1.0));
#73=DIRECTION('',(1.0,0.0,0.0));
#74= (NAMED_UNIT(#62)LENGTH_UNIT()SI_UNIT(.MILLI.,.METRE.));
#75=ADVANCED_FACE('',(#99),#100,.T.);
#76=ADVANCED_FACE('',(#101,#102),#103,.T.);
#77=ADVANCED_FACE('',(#104,#105),#106,.T.);
#78=ADVANCED_FACE('',(#107,#108),#109,.T.);
#79=ADVANCED_FACE('',(#110,#111),#112,.T.);
#80=ADVANCED_FACE('',(#113,#114),#115,.T.);
#81=ADVANCED_FACE('',(#116,#117),#118,.T.);
#82=ADVANCED_FACE('',(#119,#120),#121,.T.);
#83=ADVANCED_FACE('',(#122,#123),#124,.T.);
#84=ADVANCED_FACE('',(#125,#126),#127,.T.);
#85=ADVANCED_FACE('',(#128,#129),#130,.T.);
#86=ADVANCED_FACE('',(#131,#132),#133,.T.);
#87=ADVANCED_FACE('',(#134,#135),#136,.T.);
#88=ADVANCED_FACE('',(#137,#138),#139,.T.);
#89=ADVANCED_FACE('',(#140,#141),#142,.T.);
#90=ADVANCED_FACE('',(#143,#144),#145,.T.);
#91=ADVANCED_FACE('',(#146,#147),#148,.T.);
#92=ADVANCED_FACE('',(#149,#150),#151,.T.);
#93=ADVANCED_FACE('',(#152,#153),#154,.T.);
#94=ADVANCED_FACE('',(#155,#156),#157,.T.);
#95=ADVANCED_FACE('',(#158,#159),#160,.T.);
#96=ADVANCED_FACE('',(#161,#162),#163,.T.);
#97=ADVANCED_FACE('',(#164),#165,.T.);
#99=FACE_OUTER_BOUND('',#166,.T.);
#100=PLANE('',#167);
#101=FACE_BOUND('',#168,.T.);
#102=FACE_BOUND('',#169,.T.);
#103=CONICAL_SURFACE('',#170,14.6500000023492,0.0499583954615709);
#104=FACE_BOUND('',#171,.T.);
#105=FACE_BOUND('',#172,.T.);
#106=CYLINDRICAL_SURFACE('',#173,15.1);
#107=FACE_OUTER_BOUND('',#174,.T.);
#108=FACE_BOUND('',#175,.T.);
#109=PLANE('',#176);
#110=FACE_BOUND('',#177,.T.);
#111=FACE_BOUND('',#178,.T.);
#112=CYLINDRICAL_SURFACE('',#179,20.0);
#113=FACE_BOUND('',#180,.T.);
#114=FACE_BOUND('',#181,.T.);
#115=CONICAL_SURFACE('',#182,19.116025405,1.04719755151904);
#116=FACE_BOUND('',#183,.T.);
#117=FACE_OUTER_BOUND('',#184,.T.);
#118=PLANE('',#185);
#119=FACE_BOUND('',#186,.T.);
#120=FACE_BOUND('',#187,.T.);
#121=CYLINDRICAL_SURFACE('',#188,17.4);
#122=FACE_OUTER_BOUND('',#189,.T.);
#123=FACE_BOUND('',#190,.T.);
#124=PLANE('',#191);
#125=FACE_BOUND('',#192,.T.);
#126=FACE_BOUND('',#193,.T.);
#127=CONICAL_SURFACE('',#194,19.116025405,1.04719755151904);
#128=FACE_BOUND('',#195,.T.);
#129=FACE_BOUND('',#196,.T.);
#130=CYLINDRICAL_SURFACE('',#197,20.0);
#131=FACE_BOUND('',#198,.T.);
#132=FACE_OUTER_BOUND('',#199,.T.);
#133=PLANE('',#200);
#134=FACE_BOUND('',#201,.T.);
#135=FACE_BOUND('',#202,.T.);
#136=CYLINDRICAL_SURFACE('',#203,16.8);
#137=FACE_BOUND('',#204,.T.);
#138=FACE_OUTER_BOUND('',#205,.T.);
#139=PLANE('',#206);
#140=FACE_BOUND('',#207,.T.);
#141=FACE_BOUND('',#208,.T.);
#142=CONICAL_SURFACE('',#209,15.20000008,0.732815013388712);
#143=FACE_BOUND('',#210,.T.);
#144=FACE_BOUND('',#211,.T.);
#145=CYLINDRICAL_SURFACE('',#212,14.75000016);
#146=FACE_BOUND('',#213,.T.);
#147=FACE_OUTER_BOUND('',#214,.T.);
#148=PLANE('',#215);
#149=FACE_BOUND('',#216,.T.);
#150=FACE_BOUND('',#217,.T.);
#151=CYLINDRICAL_SURFACE('',#218,12.49999253);
#152=FACE_OUTER_BOUND('',#219,.T.);
#153=FACE_BOUND('',#220,.T.);
#154=PLANE('',#221);
#155=FACE_BOUND('',#222,.T.);
#156=FACE_BOUND('',#223,.T.);
#157=CYLINDRICAL_SURFACE('',#224,15.15000747);
#158=FACE_BOUND('',#225,.T.);
#159=FACE_BOUND('',#226,.T.);
#160=CONICAL_SURFACE('',#227,15.075003815,0.785398196730819);
#161=FACE_BOUND('',#228,.T.);
#162=FACE_BOUND('',#229,.T.);
#163=CYLINDRICAL_SURFACE('',#230,15.00000016);
#164=FACE_OUTER_BOUND('',#231,.T.);
#165=PLANE('',#232);
#166=EDGE_LOOP('',(#233));
#167=AXIS2_PLACEMENT_3D('',#234,#235,#236);
#168=EDGE_LOOP('',(#237));
#169=EDGE_LOOP('',(#238));
#170=AXIS2_PLACEMENT_3D('',#239,#240,#241);
#171=EDGE_LOOP('',(#242));
#172=EDGE_LOOP('',(#243));
#173=AXIS2_PLACEMENT_3D('',#244,#245,#246);
#174=EDGE_LOOP('',(#247));
#175=EDGE_LOOP('',(#248));
#176=AXIS2_PLACEMENT_3D('',#249,#250,#251);
#177=EDGE_LOOP('',(#252));
#178=EDGE_LOOP('',(#253));
#179=AXIS2_PLACEMENT_3D('',#254,#255,#256);
#180=EDGE_LOOP('',(#257));
#181=EDGE_LOOP('',(#258));
#182=AXIS2_PLACEMENT_3D('',#259,#260,#261);
#183=EDGE_LOOP('',(#262));
#184=EDGE_LOOP('',(#263));
#185=AXIS2_PLACEMENT_3D('',#264,#265,#266);
#186=EDGE_LOOP('',(#267));
#187=EDGE_LOOP('',(#268));
#188=AXIS2_PLACEMENT_3D('',#269,#270,#271);
#189=EDGE_LOOP('',(#272));
#190=EDGE_LOOP('',(#273));
#191=AXIS2_PLACEMENT_3D('',#274,#275,#276);
#192=EDGE_LOOP('',(#277));
#193=EDGE_LOOP('',(#278));
#194=AXIS2_PLACEMENT_3D('',#279,#280,#281);
#195=EDGE_LOOP('',(#282));
#196=EDGE_LOOP('',(#283));
#197=AXIS2_PLACEMENT_3D('',#284,#285,#286);
#198=EDGE_LOOP('',(#287));
#199=EDGE_LOOP('',(#288));
#200=AXIS2_PLACEMENT_3D('',#289,#290,#291);
#201=EDGE_LOOP('',(#292));
#202=EDGE_LOOP('',(#293));
#203=AXIS2_PLACEMENT_3D('',#294,#295,#296);
#204=EDGE_LOOP('',(#297));
#205=EDGE_LOOP('',(#298));
#206=AXIS2_PLACEMENT_3D('',#299,#300,#301);
#207=EDGE_LOOP('',(#302));
#208=EDGE_LOOP('',(#303));
#209=AXIS2_PLACEMENT_3D('',#304,#305,#306);
#210=EDGE_LOOP('',(#307));
#211=EDGE_LOOP('',(#308));
#212=AXIS2_PLACEMENT_3D('',#309,#310,#311);
#213=EDGE_LOOP('',(#312));
#214=EDGE_LOOP('',(#313));
#215=AXIS2_PLACEMENT_3D('',#314,#315,#316);
#216=EDGE_LOOP('',(#317));
#217=EDGE_LOOP('',(#318));
#218=AXIS2_PLACEMENT_3D('',#319,#320,#321);
#219=EDGE_LOOP('',(#322));
#220=EDGE_LOOP('',(#323));
#221=AXIS2_PLACEMENT_3D('',#324,#325,#326);
#222=EDGE_LOOP('',(#327));
#223=EDGE_LOOP('',(#328));
#224=AXIS2_PLACEMENT_3D('',#329,#330,#331);
#225=EDGE_LOOP('',(#332));
#226=EDGE_LOOP('',(#333));
#227=AXIS2_PLACEMENT_3D('',#334,#335,#336);
#228=EDGE_LOOP('',(#337));
#229=EDGE_LOOP('',(#338));
#230=AXIS2_PLACEMENT_3D('',#339,#340,#341);
#231=EDGE_LOOP('',(#342));
#232=AXIS2_PLACEMENT_3D('',#343,#344,#345);
#233=ORIENTED_EDGE('',*,*,#346,.F.);
#234=CARTESIAN_POINT('',(-1.22464679914735E-015,7.10000000234919,20.0));
#235=DIRECTION('',(-6.12323399573677E-017,-1.22464679914735E-016,1.0));
#236=DIRECTION('',(1.23259516440783E-032,-1.0,-1.22464679914735E-016));
#237=ORIENTED_EDGE('',*,*,#347,.F.);
#238=ORIENTED_EDGE('',*,*,#346,.T.);
#239=CARTESIAN_POINT('',(-6.73555739531044E-016,-1.34711147906209E-015,11.0));
#240=DIRECTION('',(6.12323399573676E-017,1.22464679914735E-016,-1.0));
#241=DIRECTION('',(-1.23259516440783E-032,1.0,1.22464679914735E-016));
#242=ORIENTED_EDGE('',*,*,#348,.F.);
#243=ORIENTED_EDGE('',*,*,#347,.T.);
#244=CARTESIAN_POINT('',(-6.12323399573677E-017,-1.22464679914735E-016,1.0));
#245=DIRECTION('',(-6.12323399573677E-017,-1.22464679914735E-016,1.0));
#246=DIRECTION('',(-1.23259516440783E-032,1.0,1.22464679914735E-016));
#247=ORIENTED_EDGE('',*,*,#349,.F.);
#248=ORIENTED_EDGE('',*,*,#348,.T.);
#249=CARTESIAN_POINT('',(-2.16320451353574E-031,17.55,2.1492551325036E-015));
#250=DIRECTION('',(-6.12323399573677E-017,-1.22464679914735E-016,1.0));
#251=DIRECTION('',(1.23259516440783E-032,-1.0,-1.22464679914735E-016));
#252=ORIENTED_EDGE('',*,*,#350,.F.);
#253=ORIENTED_EDGE('',*,*,#349,.T.);
#254=CARTESIAN_POINT('',(4.27991830799565E-016,8.55983661599131E-016,-6.98963703));
#255=DIRECTION('',(-6.12323399573677E-017,-1.22464679914735E-016,1.0));
#256=DIRECTION('',(-1.23259516440783E-032,1.0,1.22464679914735E-016));
#257=ORIENTED_EDGE('',*,*,#351,.F.);
#258=ORIENTED_EDGE('',*,*,#350,.T.);
#259=CARTESIAN_POINT('',(8.87234380479823E-016,1.77446876095965E-015,-14.48963703));
#260=DIRECTION('',(-6.12323399573677E-017,-1.22464679914735E-016,1.0));
#261=DIRECTION('',(-1.23259516440783E-032,1.0,1.22464679914735E-016));
#262=ORIENTED_EDGE('',*,*,#352,.F.);
#263=ORIENTED_EDGE('',*,*,#351,.T.);
#264=CARTESIAN_POINT('',(9.18485099360515E-016,17.816025405,-15.0));
#265=DIRECTION('',(6.12323399573677E-017,1.22464679914735E-016,-1.0));
#266=DIRECTION('',(-1.23259516440783E-032,1.0,1.22464679914735E-016));
#267=ORIENTED_EDGE('',*,*,#353,.F.);
#268=ORIENTED_EDGE('',*,*,#352,.T.);
#269=CARTESIAN_POINT('',(9.79717439317883E-016,1.95943487863576E-015,-16.0));
#270=DIRECTION('',(-6.12323399573677E-017,-1.22464679914735E-016,1.0));
#271=DIRECTION('',(-1.23259516440783E-032,1.0,1.22464679914735E-016));
#272=ORIENTED_EDGE('',*,*,#354,.F.);
#273=ORIENTED_EDGE('',*,*,#353,.T.);
#274=CARTESIAN_POINT('',(1.04094977927525E-015,17.816025405,-17.0));
#275=DIRECTION('',(-6.12323399573677E-017,-1.22464679914735E-016,1.0));
#276=DIRECTION('',(1.23259516440783E-032,-1.0,-1.22464679914735E-016));
#277=ORIENTED_EDGE('',*,*,#355,.F.);
#278=ORIENTED_EDGE('',*,*,#354,.T.);
#279=CARTESIAN_POINT('',(1.07220049815594E-015,2.14440099631188E-015,-17.51036297));
#280=DIRECTION('',(6.12323399573677E-017,1.22464679914735E-016,-1.0));
#281=DIRECTION('',(-1.23259516440783E-032,1.0,1.22464679914735E-016));
#282=ORIENTED_EDGE('',*,*,#356,.F.);
#283=ORIENTED_EDGE('',*,*,#355,.T.);
#284=CARTESIAN_POINT('',(1.16404900809199E-015,2.32809801618399E-015,-19.01036297));
#285=DIRECTION('',(-6.12323399573677E-017,-1.22464679914735E-016,1.0));
#286=DIRECTION('',(-1.23259516440783E-032,1.0,1.22464679914735E-016));
#287=ORIENTED_EDGE('',*,*,#357,.F.);
#288=ORIENTED_EDGE('',*,*,#356,.T.);
#289=CARTESIAN_POINT('',(1.22464679914735E-015,18.4,-20.0));
#290=DIRECTION('',(6.12323399573677E-017,1.22464679914735E-016,-1.0));
#291=DIRECTION('',(-1.23259516440783E-032,1.0,1.22464679914735E-016));
#292=ORIENTED_EDGE('',*,*,#358,.F.);
#293=ORIENTED_EDGE('',*,*,#357,.T.);
#294=CARTESIAN_POINT('',(1.68388934882761E-015,3.36777869765522E-015,-27.5));
#295=DIRECTION('',(-6.12323399573676E-017,-1.22464679914735E-016,1.0));
#296=DIRECTION('',(-1.23259516440783E-032,1.0,1.22464679914735E-016));
#297=ORIENTED_EDGE('',*,*,#359,.F.);
#298=ORIENTED_EDGE('',*,*,#358,.T.);
#299=CARTESIAN_POINT('',(2.14313189850787E-015,16.225,-35.0));
#300=DIRECTION('',(6.12323399573677E-017,1.22464679914735E-016,-1.0));
#301=DIRECTION('',(-1.23259516440783E-032,1.0,1.22464679914735E-016));
#302=ORIENTED_EDGE('',*,*,#360,.F.);
#303=ORIENTED_EDGE('',*,*,#359,.T.);
#304=CARTESIAN_POINT('',(2.17374806848655E-015,4.3474961369731E-015,-35.5));
#305=DIRECTION('',(-6.12323399573677E-017,-1.22464679914735E-016,1.0));
#306=DIRECTION('',(-1.23259516440783E-032,1.0,1.22464679914735E-016));
#307=ORIENTED_EDGE('',*,*,#361,.F.);
#308=ORIENTED_EDGE('',*,*,#360,.T.);
#309=CARTESIAN_POINT('',(3.03461435737902E-015,6.06922871475805E-015,-49.559013415));
#310=DIRECTION('',(-6.12323399573677E-017,-1.22464679914735E-016,1.0));
#311=DIRECTION('',(-1.23259516440783E-032,1.0,1.22464679914735E-016));
#312=ORIENTED_EDGE('',*,*,#362,.F.);
#313=ORIENTED_EDGE('',*,*,#361,.T.);
#314=CARTESIAN_POINT('',(3.86486447629281E-015,13.624996345,-63.11802683));
#315=DIRECTION('',(6.12323399573677E-017,1.22464679914735E-016,-1.0));
#316=DIRECTION('',(-1.23259516440783E-032,1.0,1.22464679914735E-016));
#317=ORIENTED_EDGE('',*,*,#363,.F.);
#318=ORIENTED_EDGE('',*,*,#362,.T.);
#319=CARTESIAN_POINT('',(3.95922285728724E-015,7.91844571457448E-015,-64.659016135));
#320=DIRECTION('',(-6.12323399573677E-017,-1.22464679914735E-016,1.0));
#321=DIRECTION('',(-1.23259516440783E-032,1.0,1.22464679914735E-016));
#322=ORIENTED_EDGE('',*,*,#364,.F.);
#323=ORIENTED_EDGE('',*,*,#363,.T.);
#324=CARTESIAN_POINT('',(4.05358123828167E-015,13.825,-66.20000544));
#325=DIRECTION('',(-6.12323399573677E-017,-1.22464679914735E-016,1.0));
#326=DIRECTION('',(1.23259516440783E-032,-1.0,-1.22464679914735E-016));
#327=ORIENTED_EDGE('',*,*,#365,.F.);
#328=ORIENTED_EDGE('',*,*,#364,.T.);
#329=CARTESIAN_POINT('',(4.11481334463767E-015,8.22962668927535E-015,-67.2000016250002));
#330=DIRECTION('',(-6.12323399573677E-017,-1.22464679914735E-016,1.0));
#331=DIRECTION('',(-1.23259516440783E-032,1.0,1.22464679914735E-016));
#332=ORIENTED_EDGE('',*,*,#366,.F.);
#333=ORIENTED_EDGE('',*,*,#365,.T.);
#334=CARTESIAN_POINT('',(4.18063809998851E-015,8.36127619997702E-015,-68.2750014600003));
#335=DIRECTION('',(-6.12323399573676E-017,-1.22464679914735E-016,1.0));
#336=DIRECTION('',(-1.23259516440783E-032,1.0,1.22464679914735E-016));
#337=ORIENTED_EDGE('',*,*,#367,.F.);
#338=ORIENTED_EDGE('',*,*,#366,.T.);
#339=CARTESIAN_POINT('',(4.84807067257321E-015,9.69614134514642E-015,-79.175002555));
#340=DIRECTION('',(-6.12323399573677E-017,-1.22464679914735E-016,1.0));
#341=DIRECTION('',(-1.23259516440783E-032,1.0,1.22464679914735E-016));
#342=ORIENTED_EDGE('',*,*,#367,.T.);
#343=CARTESIAN_POINT('',(5.51091059616309E-015,7.50000008000001,-90.0));
#344=DIRECTION('',(6.12323399573677E-017,1.22464679914735E-016,-1.0));
#345=DIRECTION('',(-1.23259516440783E-032,1.0,1.22464679914735E-016));
#346=EDGE_CURVE('',#368,#368,#369,.T.);
#347=EDGE_CURVE('',#370,#370,#371,.T.);
#348=EDGE_CURVE('',#372,#372,#373,.T.);
#349=EDGE_CURVE('',#374,#374,#375,.T.);
#350=EDGE_CURVE('',#376,#376,#377,.T.);
#351=EDGE_CURVE('',#378,#378,#379,.T.);
#352=EDGE_CURVE('',#380,#380,#381,.T.);
#353=EDGE_CURVE('',#382,#382,#383,.T.);
#354=EDGE_CURVE('',#384,#384,#385,.T.);
#355=EDGE_CURVE('',#386,#386,#387,.T.);
#356=EDGE_CURVE('',#388,#388,#389,.T.);
#357=EDGE_CURVE('',#390,#390,#391,.T.);
#358=EDGE_CURVE('',#392,#392,#393,.T.);
#359=EDGE_CURVE('',#394,#394,#395,.T.);
#360=EDGE_CURVE('',#396,#396,#397,.T.);
#361=EDGE_CURVE('',#398,#398,#399,.T.);
#362=EDGE_CURVE('',#400,#400,#401,.T.);
#363=EDGE_CURVE('',#402,#402,#403,.T.);
#364=EDGE_CURVE('',#404,#404,#405,.T.);
#365=EDGE_CURVE('',#406,#406,#407,.T.);
#366=EDGE_CURVE('',#408,#408,#409,.T.);
#367=EDGE_CURVE('',#410,#410,#411,.T.);
#368=VERTEX_POINT('',#412);
#369=CIRCLE('',#413,14.2000000046984);
#370=VERTEX_POINT('',#414);
#371=CIRCLE('',#415,15.1);
#372=VERTEX_POINT('',#416);
#373=CIRCLE('',#417,15.1);
#374=VERTEX_POINT('',#418);
#375=CIRCLE('',#419,20.0);
#376=VERTEX_POINT('',#420);
#377=CIRCLE('',#421,20.0);
#378=VERTEX_POINT('',#422);
#379=CIRCLE('',#423,18.23205081);
#380=VERTEX_POINT('',#424);
#381=CIRCLE('',#425,17.4);
#382=VERTEX_POINT('',#426);
#383=CIRCLE('',#427,17.4);
#384=VERTEX_POINT('',#428);
#385=CIRCLE('',#429,18.23205081);
#386=VERTEX_POINT('',#430);
#387=CIRCLE('',#431,20.0);
#388=VERTEX_POINT('',#432);
#389=CIRCLE('',#433,20.0);
#390=VERTEX_POINT('',#434);
#391=CIRCLE('',#435,16.8);
#392=VERTEX_POINT('',#436);
#393=CIRCLE('',#437,16.8);
#394=VERTEX_POINT('',#438);
#395=CIRCLE('',#439,15.65);
#396=VERTEX_POINT('',#440);
#397=CIRCLE('',#441,14.75000016);
#398=VERTEX_POINT('',#442);
#399=CIRCLE('',#443,14.75000016);
#400=VERTEX_POINT('',#444);
#401=CIRCLE('',#445,12.49999253);
#402=VERTEX_POINT('',#446);
#403=CIRCLE('',#447,12.49999253);
#404=VERTEX_POINT('',#448);
#405=CIRCLE('',#449,15.15000747);
#406=VERTEX_POINT('',#450);
#407=CIRCLE('',#451,15.15000747);
#408=VERTEX_POINT('',#452);
#409=CIRCLE('',#453,15.00000016);
#410=VERTEX_POINT('',#454);
#411=CIRCLE('',#455,15.00000016);
#412=CARTESIAN_POINT('',(-1.22464679914735E-015,14.2000000046984,20.0));
#413=AXIS2_PLACEMENT_3D('',#456,#457,#458);
#414=CARTESIAN_POINT('',(-1.22464679914736E-016,15.1,2.0));
#415=AXIS2_PLACEMENT_3D('',#459,#460,#461);
#416=CARTESIAN_POINT('',(-1.86121869825582E-031,15.1,1.8492166667125E-015));
#417=AXIS2_PLACEMENT_3D('',#462,#463,#464);
#418=CARTESIAN_POINT('',(-2.46519032881566E-031,20.0,2.44929359829471E-015));
#419=AXIS2_PLACEMENT_3D('',#465,#466,#467);
#420=CARTESIAN_POINT('',(8.55983661599131E-016,20.0,-13.97927406));
#421=AXIS2_PLACEMENT_3D('',#468,#469,#470);
#422=CARTESIAN_POINT('',(9.18485099360515E-016,18.23205081,-15.0));
#423=AXIS2_PLACEMENT_3D('',#471,#472,#473);
#424=CARTESIAN_POINT('',(9.18485099360515E-016,17.4,-15.0));
#425=AXIS2_PLACEMENT_3D('',#474,#475,#476);
#426=CARTESIAN_POINT('',(1.04094977927525E-015,17.4,-17.0));
#427=AXIS2_PLACEMENT_3D('',#477,#478,#479);
#428=CARTESIAN_POINT('',(1.04094977927525E-015,18.23205081,-17.0));
#429=AXIS2_PLACEMENT_3D('',#480,#481,#482);
#430=CARTESIAN_POINT('',(1.10345121703663E-015,20.0,-18.02072594));
#431=AXIS2_PLACEMENT_3D('',#483,#484,#485);
#432=CARTESIAN_POINT('',(1.22464679914735E-015,20.0,-20.0));
#433=AXIS2_PLACEMENT_3D('',#486,#487,#488);
#434=CARTESIAN_POINT('',(1.22464679914735E-015,16.8,-20.0));
#435=AXIS2_PLACEMENT_3D('',#489,#490,#491);
#436=CARTESIAN_POINT('',(2.14313189850787E-015,16.8,-35.0));
#437=AXIS2_PLACEMENT_3D('',#492,#493,#494);
#438=CARTESIAN_POINT('',(2.14313189850787E-015,15.65,-35.0));
#439=AXIS2_PLACEMENT_3D('',#495,#496,#497);
#440=CARTESIAN_POINT('',(2.20436423846524E-015,14.75000016,-36.0));
#441=AXIS2_PLACEMENT_3D('',#498,#499,#500);
#442=CARTESIAN_POINT('',(3.86486447629281E-015,14.75000016,-63.11802683));
#443=AXIS2_PLACEMENT_3D('',#501,#502,#503);
#444=CARTESIAN_POINT('',(3.86486447629281E-015,12.49999253,-63.11802683));
#445=AXIS2_PLACEMENT_3D('',#504,#505,#506);
#446=CARTESIAN_POINT('',(4.05358123828167E-015,12.49999253,-66.20000544));
#447=AXIS2_PLACEMENT_3D('',#507,#508,#509);
#448=CARTESIAN_POINT('',(4.05358123828167E-015,15.15000747,-66.20000544));
#449=AXIS2_PLACEMENT_3D('',#510,#511,#512);
#450=CARTESIAN_POINT('',(4.17604545099368E-015,15.15000747,-68.1999978100005));
#451=AXIS2_PLACEMENT_3D('',#513,#514,#515);
#452=CARTESIAN_POINT('',(4.18523074898334E-015,15.00000016,-68.35000511));
#453=AXIS2_PLACEMENT_3D('',#516,#517,#518);
#454=CARTESIAN_POINT('',(5.51091059616309E-015,15.00000016,-90.0));
#455=AXIS2_PLACEMENT_3D('',#519,#520,#521);
#456=CARTESIAN_POINT('',(-1.22464679914735E-015,-2.44929359829471E-015,20.0));
#457=DIRECTION('',(6.12323399573677E-017,1.22464679914735E-016,-1.0));
#458=DIRECTION('',(-1.23259516440783E-032,1.0,1.22464679914735E-016));
#459=CARTESIAN_POINT('',(-1.22464679914735E-016,-2.44929359829471E-016,2.0));
#460=DIRECTION('',(6.12323399573677E-017,1.22464679914735E-016,-1.0));
#461=DIRECTION('',(-1.23259516440783E-032,1.0,1.22464679914735E-016));
#462=CARTESIAN_POINT('',(0.0,0.0,0.0));
#463=DIRECTION('',(6.12323399573677E-017,1.22464679914735E-016,-1.0));
#464=DIRECTION('',(-1.23259516440783E-032,1.0,1.22464679914735E-016));
#465=CARTESIAN_POINT('',(0.0,0.0,0.0));
#466=DIRECTION('',(6.12323399573677E-017,1.22464679914735E-016,-1.0));
#467=DIRECTION('',(-1.23259516440783E-032,1.0,1.22464679914735E-016));
#468=CARTESIAN_POINT('',(8.55983661599131E-016,1.71196732319826E-015,-13.97927406));
#469=DIRECTION('',(6.12323399573677E-017,1.22464679914735E-016,-1.0));
#470=DIRECTION('',(-1.23259516440783E-032,1.0,1.22464679914735E-016));
#471=CARTESIAN_POINT('',(9.18485099360515E-016,1.83697019872103E-015,-15.0));
#472=DIRECTION('',(6.12323399573677E-017,1.22464679914735E-016,-1.0));
#473=DIRECTION('',(-1.23259516440783E-032,1.0,1.22464679914735E-016));
#474=CARTESIAN_POINT('',(9.18485099360515E-016,1.83697019872103E-015,-15.0));
#475=DIRECTION('',(6.12323399573677E-017,1.22464679914735E-016,-1.0));
#476=DIRECTION('',(-1.23259516440783E-032,1.0,1.22464679914735E-016));
#477=CARTESIAN_POINT('',(1.04094977927525E-015,2.0818995585505E-015,-17.0));
#478=DIRECTION('',(6.12323399573677E-017,1.22464679914735E-016,-1.0));
#479=DIRECTION('',(-1.23259516440783E-032,1.0,1.22464679914735E-016));
#480=CARTESIAN_POINT('',(1.04094977927525E-015,2.0818995585505E-015,-17.0));
#481=DIRECTION('',(6.12323399573677E-017,1.22464679914735E-016,-1.0));
#482=DIRECTION('',(-1.23259516440783E-032,1.0,1.22464679914735E-016));
#483=CARTESIAN_POINT('',(1.10345121703663E-015,2.20690243407327E-015,-18.02072594));
#484=DIRECTION('',(6.12323399573677E-017,1.22464679914735E-016,-1.0));
#485=DIRECTION('',(-1.23259516440783E-032,1.0,1.22464679914735E-016));
#486=CARTESIAN_POINT('',(1.22464679914735E-015,2.44929359829471E-015,-20.0));
#487=DIRECTION('',(6.12323399573677E-017,1.22464679914735E-016,-1.0));
#488=DIRECTION('',(-1.23259516440783E-032,1.0,1.22464679914735E-016));
#489=CARTESIAN_POINT('',(1.22464679914735E-015,2.44929359829471E-015,-20.0));
#490=DIRECTION('',(6.12323399573676E-017,1.22464679914735E-016,-1.0));
#491=DIRECTION('',(-1.23259516440783E-032,1.0,1.22464679914735E-016));
#492=CARTESIAN_POINT('',(2.14313189850787E-015,4.28626379701573E-015,-35.0));
#493=DIRECTION('',(6.12323399573677E-017,1.22464679914735E-016,-1.0));
#494=DIRECTION('',(-1.23259516440783E-032,1.0,1.22464679914735E-016));
#495=CARTESIAN_POINT('',(2.14313189850787E-015,4.28626379701573E-015,-35.0));
#496=DIRECTION('',(6.12323399573677E-017,1.22464679914735E-016,-1.0));
#497=DIRECTION('',(-1.23259516440783E-032,1.0,1.22464679914735E-016));
#498=CARTESIAN_POINT('',(2.20436423846524E-015,4.40872847693047E-015,-36.0));
#499=DIRECTION('',(6.12323399573677E-017,1.22464679914735E-016,-1.0));
#500=DIRECTION('',(-1.23259516440783E-032,1.0,1.22464679914735E-016));
#501=CARTESIAN_POINT('',(3.86486447629281E-015,7.72972895258562E-015,-63.11802683));
#502=DIRECTION('',(6.12323399573677E-017,1.22464679914735E-016,-1.0));
#503=DIRECTION('',(-1.23259516440783E-032,1.0,1.22464679914735E-016));
#504=CARTESIAN_POINT('',(3.86486447629281E-015,7.72972895258562E-015,-63.11802683));
#505=DIRECTION('',(6.12323399573677E-017,1.22464679914735E-016,-1.0));
#506=DIRECTION('',(-1.23259516440783E-032,1.0,1.22464679914735E-016));
#507=CARTESIAN_POINT('',(4.05358123828167E-015,8.10716247656333E-015,-66.20000544));
#508=DIRECTION('',(6.12323399573677E-017,1.22464679914735E-016,-1.0));
#509=DIRECTION('',(-1.23259516440783E-032,1.0,1.22464679914735E-016));
#510=CARTESIAN_POINT('',(4.05358123828167E-015,8.10716247656333E-015,-66.20000544));
#511=DIRECTION('',(6.12323399573677E-017,1.22464679914735E-016,-1.0));
#512=DIRECTION('',(-1.23259516440783E-032,1.0,1.22464679914735E-016));
#513=CARTESIAN_POINT('',(4.17604545099368E-015,8.35209090198736E-015,-68.1999978100005));
#514=DIRECTION('',(6.12323399573677E-017,1.22464679914735E-016,-1.0));
#515=DIRECTION('',(-1.23259516440783E-032,1.0,1.22464679914735E-016));
#516=CARTESIAN_POINT('',(4.18523074898334E-015,8.37046149796667E-015,-68.35000511));
#517=DIRECTION('',(6.12323399573677E-017,1.22464679914735E-016,-1.0));
#518=DIRECTION('',(-1.23259516440783E-032,1.0,1.22464679914735E-016));
#519=CARTESIAN_POINT('',(5.51091059616309E-015,1.10218211923262E-014,-90.0));
#520=DIRECTION('',(6.12323399573677E-017,1.22464679914735E-016,-1.0));
#521=DIRECTION('',(-1.23259516440783E-032,1.0,1.22464679914735E-016));
ENDSEC;
END-ISO-10303-21;
