ISO-10303-21;
HEADER;
FILE_DESCRIPTION((''),'1');
FILE_NAME('//Big_tech03/bigt/Translate/21_\X2\8F2A90ED7DDA\X0\-DXF/13_\X2\30CF30A430C930ED30C130E330C330AF\X0\ HDC/HSK/A 40/HSK-A40-HDC8-70.stp','2012-05-15T05:11:41',(''),(''),'Spatial Interop R18','Kubotek KeyCreator V8.5.1 (14335)',' ');
FILE_SCHEMA(('CONFIG_CONTROL_DESIGN'));
ENDSEC;
DATA;
#1=DESIGN_CONTEXT('',#27,'design');
#2=APPLICATION_PROTOCOL_DEFINITION('INTERNATIONAL STANDARD','config_control_design',1994,#27);
#3=PRODUCT_CATEGORY_RELATIONSHIP('NONE','NONE',#28,#29);
#4=DATE_AND_TIME(#30,#31);
#5=DATE_TIME_ROLE('creation_date');
#6=DATE_TIME_ROLE('classification_date');
#7=PERSON_AND_ORGANIZATION_ROLE('creator');
#8=PERSON_AND_ORGANIZATION_ROLE('design_supplier');
#9=PERSON_AND_ORGANIZATION_ROLE('classification_officer');
#10=PERSON_AND_ORGANIZATION_ROLE('design_owner');
#11=APPROVAL_PERSON_ORGANIZATION(#32,#33,#34);
#12=APPROVAL_DATE_TIME(#4,#33);
#13=CC_DESIGN_APPROVAL(#33,(#35,#36,#37));
#14=CC_DESIGN_DATE_AND_TIME_ASSIGNMENT(#4,#5,(#37));
#15=CC_DESIGN_DATE_AND_TIME_ASSIGNMENT(#4,#6,(#35));
#16=CC_DESIGN_PERSON_AND_ORGANIZATION_ASSIGNMENT(#32,#10,(#38));
#17=CC_DESIGN_PERSON_AND_ORGANIZATION_ASSIGNMENT(#32,#7,(#37));
#18=CC_DESIGN_PERSON_AND_ORGANIZATION_ASSIGNMENT(#32,#7,(#36));
#19=CC_DESIGN_PERSON_AND_ORGANIZATION_ASSIGNMENT(#32,#8,(#36));
#20=CC_DESIGN_SECURITY_CLASSIFICATION(#35,(#36));
#21=CC_DESIGN_PERSON_AND_ORGANIZATION_ASSIGNMENT(#32,#9,(#35));
#22=SHAPE_DEFINITION_REPRESENTATION(#39,#40);
#23= (GEOMETRIC_REPRESENTATION_CONTEXT(3)GLOBAL_UNCERTAINTY_ASSIGNED_CONTEXT((#43))GLOBAL_UNIT_ASSIGNED_CONTEXT((#45,#46,#47))REPRESENTATION_CONTEXT('NONE','WORKSPACE'));
#27=APPLICATION_CONTEXT('CONFIGURATION CONTROLLED 3D DESIGNS OF MECHANICAL PARTS AND ASSEMBLIES');
#28=PRODUCT_CATEGORY('part','NONE');
#29=PRODUCT_RELATED_PRODUCT_CATEGORY('detail',' ',(#38));
#30=CALENDAR_DATE(2012,15,4);
#31=LOCAL_TIME(14,11,41.0,#49);
#32=PERSON_AND_ORGANIZATION(#50,#51);
#33=APPROVAL(#52,'SOLID MODEL');
#34=APPROVAL_ROLE('APPROVED');
#35=SECURITY_CLASSIFICATION('','',#53);
#36=PRODUCT_DEFINITION_FORMATION_WITH_SPECIFIED_SOURCE(' ','NONE',#38,.NOT_KNOWN.);
#37=PRODUCT_DEFINITION('NONE','NONE',#36,#1);
#38=PRODUCT('1','1','PART-1-DESC',(#54));
#39=PRODUCT_DEFINITION_SHAPE('NONE','NONE',#37);
#40=ADVANCED_BREP_SHAPE_REPRESENTATION('1',(#55,#56),#23);
#43=UNCERTAINTY_MEASURE_WITH_UNIT(LENGTH_MEASURE(1.0E-006),#45,'','');
#45= (CONVERSION_BASED_UNIT('MILLIMETRE',#59)LENGTH_UNIT()NAMED_UNIT(#62));
#46= (NAMED_UNIT(#64)PLANE_ANGLE_UNIT()SI_UNIT($,.RADIAN.));
#47= (NAMED_UNIT(#64)SOLID_ANGLE_UNIT()SI_UNIT($,.STERADIAN.));
#49=COORDINATED_UNIVERSAL_TIME_OFFSET(9,0,.AHEAD.);
#50=PERSON('','UNSPECIFIED',$,$,$,$);
#51=ORGANIZATION('UNSPECIFIED','UNSPECIFIED','UNSPECIFIED');
#52=APPROVAL_STATUS('approved');
#53=SECURITY_CLASSIFICATION_LEVEL('unclassified');
#54=MECHANICAL_CONTEXT('',#27,'mechanical');
#55=MANIFOLD_SOLID_BREP('1',#70);
#56=AXIS2_PLACEMENT_3D('',#71,#72,#73);
#59=LENGTH_MEASURE_WITH_UNIT(LENGTH_MEASURE(1.0),#74);
#62=DIMENSIONAL_EXPONENTS(1.0,0.0,0.0,0.0,0.0,0.0,0.0);
#64=DIMENSIONAL_EXPONENTS(0.0,0.0,0.0,0.0,0.0,0.0,0.0);
#70=CLOSED_SHELL('',(#75,#76,#77,#78,#79,#80,#81,#82,#83,#84,#85,#86,#87,#88,#89,#90,#91,#92,#93,#94));
#71=CARTESIAN_POINT('',(0.0,0.0,0.0));
#72=DIRECTION('',(0.0,0.0,1.0));
#73=DIRECTION('',(1.0,0.0,0.0));
#74= (NAMED_UNIT(#62)LENGTH_UNIT()SI_UNIT(.MILLI.,.METRE.));
#75=ADVANCED_FACE('',(#96),#97,.T.);
#76=ADVANCED_FACE('',(#98),#99,.T.);
#77=ADVANCED_FACE('',(#100,#101),#102,.T.);
#78=ADVANCED_FACE('',(#103,#104),#105,.T.);
#79=ADVANCED_FACE('',(#106,#107),#108,.T.);
#80=ADVANCED_FACE('',(#109,#110),#111,.T.);
#81=ADVANCED_FACE('',(#112,#113),#114,.T.);
#82=ADVANCED_FACE('',(#115,#116),#117,.T.);
#83=ADVANCED_FACE('',(#118,#119),#120,.T.);
#84=ADVANCED_FACE('',(#121,#122),#123,.T.);
#85=ADVANCED_FACE('',(#124,#125),#126,.T.);
#86=ADVANCED_FACE('',(#127,#128),#129,.T.);
#87=ADVANCED_FACE('',(#130,#131),#132,.T.);
#88=ADVANCED_FACE('',(#133,#134),#135,.T.);
#89=ADVANCED_FACE('',(#136,#137),#138,.T.);
#90=ADVANCED_FACE('',(#139,#140),#141,.T.);
#91=ADVANCED_FACE('',(#142,#143),#144,.T.);
#92=ADVANCED_FACE('',(#145,#146),#147,.T.);
#93=ADVANCED_FACE('',(#148,#149),#150,.T.);
#94=ADVANCED_FACE('',(#151,#152),#153,.T.);
#96=FACE_OUTER_BOUND('',#154,.T.);
#97=PLANE('',#155);
#98=FACE_OUTER_BOUND('',#156,.T.);
#99=PLANE('',#157);
#100=FACE_BOUND('',#158,.T.);
#101=FACE_BOUND('',#159,.T.);
#102=CONICAL_SURFACE('',#160,6.65,0.785398163397438);
#103=FACE_OUTER_BOUND('',#161,.T.);
#104=FACE_BOUND('',#162,.T.);
#105=PLANE('',#163);
#106=FACE_BOUND('',#164,.T.);
#107=FACE_BOUND('',#165,.T.);
#108=CONICAL_SURFACE('',#166,13.094000000698,0.130899693821098);
#109=FACE_BOUND('',#167,.T.);
#110=FACE_BOUND('',#168,.T.);
#111=CYLINDRICAL_SURFACE('',#169,14.0);
#112=FACE_BOUND('',#170,.T.);
#113=FACE_BOUND('',#171,.T.);
#114=CONICAL_SURFACE('',#172,14.5,0.785398163397448);
#115=FACE_OUTER_BOUND('',#173,.T.);
#116=FACE_BOUND('',#174,.T.);
#117=PLANE('',#175);
#118=FACE_BOUND('',#176,.T.);
#119=FACE_BOUND('',#177,.T.);
#120=CYLINDRICAL_SURFACE('',#178,16.8);
#121=FACE_OUTER_BOUND('',#179,.T.);
#122=FACE_BOUND('',#180,.T.);
#123=PLANE('',#181);
#124=FACE_BOUND('',#182,.T.);
#125=FACE_BOUND('',#183,.T.);
#126=CYLINDRICAL_SURFACE('',#184,20.0);
#127=FACE_BOUND('',#185,.T.);
#128=FACE_BOUND('',#186,.T.);
#129=CONICAL_SURFACE('',#187,19.116025405,1.04719755151904);
#130=FACE_BOUND('',#188,.T.);
#131=FACE_OUTER_BOUND('',#189,.T.);
#132=PLANE('',#190);
#133=FACE_BOUND('',#191,.T.);
#134=FACE_BOUND('',#192,.T.);
#135=CYLINDRICAL_SURFACE('',#193,17.4);
#136=FACE_OUTER_BOUND('',#194,.T.);
#137=FACE_BOUND('',#195,.T.);
#138=PLANE('',#196);
#139=FACE_BOUND('',#197,.T.);
#140=FACE_BOUND('',#198,.T.);
#141=CONICAL_SURFACE('',#199,19.116025405,1.04719755151904);
#142=FACE_BOUND('',#200,.T.);
#143=FACE_BOUND('',#201,.T.);
#144=CYLINDRICAL_SURFACE('',#202,20.0);
#145=FACE_BOUND('',#203,.T.);
#146=FACE_OUTER_BOUND('',#204,.T.);
#147=PLANE('',#205);
#148=FACE_BOUND('',#206,.T.);
#149=FACE_BOUND('',#207,.T.);
#150=CYLINDRICAL_SURFACE('',#208,15.1);
#151=FACE_BOUND('',#209,.T.);
#152=FACE_BOUND('',#210,.T.);
#153=CONICAL_SURFACE('',#211,14.6500000023492,0.0499583954615709);
#154=EDGE_LOOP('',(#212));
#155=AXIS2_PLACEMENT_3D('',#213,#214,#215);
#156=EDGE_LOOP('',(#216));
#157=AXIS2_PLACEMENT_3D('',#217,#218,#219);
#158=EDGE_LOOP('',(#220));
#159=EDGE_LOOP('',(#221));
#160=AXIS2_PLACEMENT_3D('',#222,#223,#224);
#161=EDGE_LOOP('',(#225));
#162=EDGE_LOOP('',(#226));
#163=AXIS2_PLACEMENT_3D('',#227,#228,#229);
#164=EDGE_LOOP('',(#230));
#165=EDGE_LOOP('',(#231));
#166=AXIS2_PLACEMENT_3D('',#232,#233,#234);
#167=EDGE_LOOP('',(#235));
#168=EDGE_LOOP('',(#236));
#169=AXIS2_PLACEMENT_3D('',#237,#238,#239);
#170=EDGE_LOOP('',(#240));
#171=EDGE_LOOP('',(#241));
#172=AXIS2_PLACEMENT_3D('',#242,#243,#244);
#173=EDGE_LOOP('',(#245));
#174=EDGE_LOOP('',(#246));
#175=AXIS2_PLACEMENT_3D('',#247,#248,#249);
#176=EDGE_LOOP('',(#250));
#177=EDGE_LOOP('',(#251));
#178=AXIS2_PLACEMENT_3D('',#252,#253,#254);
#179=EDGE_LOOP('',(#255));
#180=EDGE_LOOP('',(#256));
#181=AXIS2_PLACEMENT_3D('',#257,#258,#259);
#182=EDGE_LOOP('',(#260));
#183=EDGE_LOOP('',(#261));
#184=AXIS2_PLACEMENT_3D('',#262,#263,#264);
#185=EDGE_LOOP('',(#265));
#186=EDGE_LOOP('',(#266));
#187=AXIS2_PLACEMENT_3D('',#267,#268,#269);
#188=EDGE_LOOP('',(#270));
#189=EDGE_LOOP('',(#271));
#190=AXIS2_PLACEMENT_3D('',#272,#273,#274);
#191=EDGE_LOOP('',(#275));
#192=EDGE_LOOP('',(#276));
#193=AXIS2_PLACEMENT_3D('',#277,#278,#279);
#194=EDGE_LOOP('',(#280));
#195=EDGE_LOOP('',(#281));
#196=AXIS2_PLACEMENT_3D('',#282,#283,#284);
#197=EDGE_LOOP('',(#285));
#198=EDGE_LOOP('',(#286));
#199=AXIS2_PLACEMENT_3D('',#287,#288,#289);
#200=EDGE_LOOP('',(#290));
#201=EDGE_LOOP('',(#291));
#202=AXIS2_PLACEMENT_3D('',#292,#293,#294);
#203=EDGE_LOOP('',(#295));
#204=EDGE_LOOP('',(#296));
#205=AXIS2_PLACEMENT_3D('',#297,#298,#299);
#206=EDGE_LOOP('',(#300));
#207=EDGE_LOOP('',(#301));
#208=AXIS2_PLACEMENT_3D('',#302,#303,#304);
#209=EDGE_LOOP('',(#305));
#210=EDGE_LOOP('',(#306));
#211=AXIS2_PLACEMENT_3D('',#307,#308,#309);
#212=ORIENTED_EDGE('',*,*,#310,.T.);
#213=CARTESIAN_POINT('',(-1.22464679914735E-015,7.10000000234919,20.0));
#214=DIRECTION('',(-6.12323399573677E-017,-1.22464679914735E-016,1.0));
#215=DIRECTION('',(-1.23259516440783E-032,1.0,1.22464679914735E-016));
#216=ORIENTED_EDGE('',*,*,#311,.F.);
#217=CARTESIAN_POINT('',(4.28626379701574E-015,3.15000000000001,-70.0));
#218=DIRECTION('',(6.12323399573677E-017,1.22464679914735E-016,-1.0));
#219=DIRECTION('',(1.23259516440783E-032,-1.0,-1.22464679914735E-016));
#220=ORIENTED_EDGE('',*,*,#312,.F.);
#221=ORIENTED_EDGE('',*,*,#311,.T.);
#222=CARTESIAN_POINT('',(4.26483247803066E-015,8.52966495606131E-015,-69.65));
#223=DIRECTION('',(-6.12323399573677E-017,-1.22464679914735E-016,1.0));
#224=DIRECTION('',(-1.23259516440783E-032,1.0,1.22464679914735E-016));
#225=ORIENTED_EDGE('',*,*,#313,.F.);
#226=ORIENTED_EDGE('',*,*,#312,.T.);
#227=CARTESIAN_POINT('',(4.24340115904558E-015,9.59400000069805,-69.3));
#228=DIRECTION('',(6.12323399573677E-017,1.22464679914735E-016,-1.0));
#229=DIRECTION('',(1.23259516440783E-032,-1.0,-1.22464679914735E-016));
#230=ORIENTED_EDGE('',*,*,#314,.F.);
#231=ORIENTED_EDGE('',*,*,#313,.T.);
#232=CARTESIAN_POINT('',(3.82201530606967E-015,7.64403061213933E-015,-62.418246775));
#233=DIRECTION('',(-6.12323399573677E-017,-1.22464679914735E-016,1.0));
#234=DIRECTION('',(-1.23259516440783E-032,1.0,1.22464679914735E-016));
#235=ORIENTED_EDGE('',*,*,#315,.F.);
#236=ORIENTED_EDGE('',*,*,#314,.T.);
#237=CARTESIAN_POINT('',(2.77188067580081E-015,5.54376135160162E-015,-45.268246775));
#238=DIRECTION('',(6.12323399573677E-017,1.22464679914735E-016,-1.0));
#239=DIRECTION('',(-1.23259516440783E-032,1.0,1.22464679914735E-016));
#240=ORIENTED_EDGE('',*,*,#316,.F.);
#241=ORIENTED_EDGE('',*,*,#315,.T.);
#242=CARTESIAN_POINT('',(2.11251572852918E-015,4.22503145705837E-015,-34.5));
#243=DIRECTION('',(-6.12323399573677E-017,-1.22464679914735E-016,1.0));
#244=DIRECTION('',(-1.23259516440783E-032,1.0,1.22464679914735E-016));
#245=ORIENTED_EDGE('',*,*,#317,.F.);
#246=ORIENTED_EDGE('',*,*,#316,.T.);
#247=CARTESIAN_POINT('',(2.0818995585505E-015,15.9,-34.0));
#248=DIRECTION('',(6.12323399573677E-017,1.22464679914735E-016,-1.0));
#249=DIRECTION('',(1.23259516440783E-032,-1.0,-1.22464679914735E-016));
#250=ORIENTED_EDGE('',*,*,#318,.F.);
#251=ORIENTED_EDGE('',*,*,#317,.T.);
#252=CARTESIAN_POINT('',(1.65327317884893E-015,3.30654635769785E-015,-27.0));
#253=DIRECTION('',(6.12323399573677E-017,1.22464679914735E-016,-1.0));
#254=DIRECTION('',(-1.23259516440783E-032,1.0,1.22464679914735E-016));
#255=ORIENTED_EDGE('',*,*,#319,.F.);
#256=ORIENTED_EDGE('',*,*,#318,.T.);
#257=CARTESIAN_POINT('',(1.22464679914735E-015,18.4,-20.0));
#258=DIRECTION('',(6.12323399573677E-017,1.22464679914735E-016,-1.0));
#259=DIRECTION('',(1.23259516440783E-032,-1.0,-1.22464679914735E-016));
#260=ORIENTED_EDGE('',*,*,#320,.F.);
#261=ORIENTED_EDGE('',*,*,#319,.T.);
#262=CARTESIAN_POINT('',(1.16404900809199E-015,2.32809801618399E-015,-19.01036297));
#263=DIRECTION('',(6.12323399573677E-017,1.22464679914735E-016,-1.0));
#264=DIRECTION('',(-1.23259516440783E-032,1.0,1.22464679914735E-016));
#265=ORIENTED_EDGE('',*,*,#321,.F.);
#266=ORIENTED_EDGE('',*,*,#320,.T.);
#267=CARTESIAN_POINT('',(1.07220049815594E-015,2.14440099631188E-015,-17.51036297));
#268=DIRECTION('',(6.12323399573677E-017,1.22464679914735E-016,-1.0));
#269=DIRECTION('',(-1.23259516440783E-032,1.0,1.22464679914735E-016));
#270=ORIENTED_EDGE('',*,*,#322,.F.);
#271=ORIENTED_EDGE('',*,*,#321,.T.);
#272=CARTESIAN_POINT('',(1.04094977927525E-015,17.816025405,-17.0));
#273=DIRECTION('',(-6.12323399573677E-017,-1.22464679914735E-016,1.0));
#274=DIRECTION('',(-1.23259516440783E-032,1.0,1.22464679914735E-016));
#275=ORIENTED_EDGE('',*,*,#323,.F.);
#276=ORIENTED_EDGE('',*,*,#322,.T.);
#277=CARTESIAN_POINT('',(9.79717439317883E-016,1.95943487863577E-015,-16.0));
#278=DIRECTION('',(6.12323399573677E-017,1.22464679914735E-016,-1.0));
#279=DIRECTION('',(-1.23259516440783E-032,1.0,1.22464679914735E-016));
#280=ORIENTED_EDGE('',*,*,#324,.F.);
#281=ORIENTED_EDGE('',*,*,#323,.T.);
#282=CARTESIAN_POINT('',(9.18485099360515E-016,17.816025405,-15.0));
#283=DIRECTION('',(6.12323399573677E-017,1.22464679914735E-016,-1.0));
#284=DIRECTION('',(1.23259516440783E-032,-1.0,-1.22464679914735E-016));
#285=ORIENTED_EDGE('',*,*,#325,.F.);
#286=ORIENTED_EDGE('',*,*,#324,.T.);
#287=CARTESIAN_POINT('',(8.87234380479823E-016,1.77446876095965E-015,-14.48963703));
#288=DIRECTION('',(-6.12323399573677E-017,-1.22464679914735E-016,1.0));
#289=DIRECTION('',(-1.23259516440783E-032,1.0,1.22464679914735E-016));
#290=ORIENTED_EDGE('',*,*,#326,.F.);
#291=ORIENTED_EDGE('',*,*,#325,.T.);
#292=CARTESIAN_POINT('',(4.27991830799566E-016,8.55983661599131E-016,-6.98963703));
#293=DIRECTION('',(6.12323399573677E-017,1.22464679914735E-016,-1.0));
#294=DIRECTION('',(-1.23259516440783E-032,1.0,1.22464679914735E-016));
#295=ORIENTED_EDGE('',*,*,#327,.F.);
#296=ORIENTED_EDGE('',*,*,#326,.T.);
#297=CARTESIAN_POINT('',(-2.16320451353574E-031,17.55,2.1492551325036E-015));
#298=DIRECTION('',(-6.12323399573677E-017,-1.22464679914735E-016,1.0));
#299=DIRECTION('',(-1.23259516440783E-032,1.0,1.22464679914735E-016));
#300=ORIENTED_EDGE('',*,*,#328,.F.);
#301=ORIENTED_EDGE('',*,*,#327,.T.);
#302=CARTESIAN_POINT('',(-6.12323399573677E-017,-1.22464679914735E-016,1.0));
#303=DIRECTION('',(6.12323399573677E-017,1.22464679914735E-016,-1.0));
#304=DIRECTION('',(-1.23259516440783E-032,1.0,1.22464679914735E-016));
#305=ORIENTED_EDGE('',*,*,#310,.F.);
#306=ORIENTED_EDGE('',*,*,#328,.T.);
#307=CARTESIAN_POINT('',(-6.73555739531044E-016,-1.34711147906209E-015,11.0));
#308=DIRECTION('',(6.12323399573676E-017,1.22464679914735E-016,-1.0));
#309=DIRECTION('',(-1.23259516440783E-032,1.0,1.22464679914735E-016));
#310=EDGE_CURVE('',#329,#329,#330,.T.);
#311=EDGE_CURVE('',#331,#331,#332,.T.);
#312=EDGE_CURVE('',#333,#333,#334,.T.);
#313=EDGE_CURVE('',#335,#335,#336,.T.);
#314=EDGE_CURVE('',#337,#337,#338,.T.);
#315=EDGE_CURVE('',#339,#339,#340,.T.);
#316=EDGE_CURVE('',#341,#341,#342,.T.);
#317=EDGE_CURVE('',#343,#343,#344,.T.);
#318=EDGE_CURVE('',#345,#345,#346,.T.);
#319=EDGE_CURVE('',#347,#347,#348,.T.);
#320=EDGE_CURVE('',#349,#349,#350,.T.);
#321=EDGE_CURVE('',#351,#351,#352,.T.);
#322=EDGE_CURVE('',#353,#353,#354,.T.);
#323=EDGE_CURVE('',#355,#355,#356,.T.);
#324=EDGE_CURVE('',#357,#357,#358,.T.);
#325=EDGE_CURVE('',#359,#359,#360,.T.);
#326=EDGE_CURVE('',#361,#361,#362,.T.);
#327=EDGE_CURVE('',#363,#363,#364,.T.);
#328=EDGE_CURVE('',#365,#365,#366,.T.);
#329=VERTEX_POINT('',#367);
#330=CIRCLE('',#368,14.2000000046984);
#331=VERTEX_POINT('',#369);
#332=CIRCLE('',#370,6.3);
#333=VERTEX_POINT('',#371);
#334=CIRCLE('',#372,7.0);
#335=VERTEX_POINT('',#373);
#336=CIRCLE('',#374,12.1880000013961);
#337=VERTEX_POINT('',#375);
#338=CIRCLE('',#376,14.0);
#339=VERTEX_POINT('',#377);
#340=CIRCLE('',#378,14.0);
#341=VERTEX_POINT('',#379);
#342=CIRCLE('',#380,15.0);
#343=VERTEX_POINT('',#381);
#344=CIRCLE('',#382,16.8);
#345=VERTEX_POINT('',#383);
#346=CIRCLE('',#384,16.8);
#347=VERTEX_POINT('',#385);
#348=CIRCLE('',#386,20.0);
#349=VERTEX_POINT('',#387);
#350=CIRCLE('',#388,20.0);
#351=VERTEX_POINT('',#389);
#352=CIRCLE('',#390,18.23205081);
#353=VERTEX_POINT('',#391);
#354=CIRCLE('',#392,17.4);
#355=VERTEX_POINT('',#393);
#356=CIRCLE('',#394,17.4);
#357=VERTEX_POINT('',#395);
#358=CIRCLE('',#396,18.23205081);
#359=VERTEX_POINT('',#397);
#360=CIRCLE('',#398,20.0);
#361=VERTEX_POINT('',#399);
#362=CIRCLE('',#400,20.0);
#363=VERTEX_POINT('',#401);
#364=CIRCLE('',#402,15.1);
#365=VERTEX_POINT('',#403);
#366=CIRCLE('',#404,15.1);
#367=CARTESIAN_POINT('',(-1.22464679914735E-015,14.2000000046984,20.0));
#368=AXIS2_PLACEMENT_3D('',#405,#406,#407);
#369=CARTESIAN_POINT('',(4.28626379701574E-015,6.30000000000001,-70.0));
#370=AXIS2_PLACEMENT_3D('',#408,#409,#410);
#371=CARTESIAN_POINT('',(4.24340115904558E-015,7.00000000000001,-69.3));
#372=AXIS2_PLACEMENT_3D('',#411,#412,#413);
#373=CARTESIAN_POINT('',(4.24340115904558E-015,12.1880000013961,-69.3));
#374=AXIS2_PLACEMENT_3D('',#414,#415,#416);
#375=CARTESIAN_POINT('',(3.40062945309376E-015,14.0,-55.53649355));
#376=AXIS2_PLACEMENT_3D('',#417,#418,#419);
#377=CARTESIAN_POINT('',(2.14313189850787E-015,14.0,-35.0));
#378=AXIS2_PLACEMENT_3D('',#420,#421,#422);
#379=CARTESIAN_POINT('',(2.0818995585505E-015,15.0,-34.0));
#380=AXIS2_PLACEMENT_3D('',#423,#424,#425);
#381=CARTESIAN_POINT('',(2.0818995585505E-015,16.8,-34.0));
#382=AXIS2_PLACEMENT_3D('',#426,#427,#428);
#383=CARTESIAN_POINT('',(1.22464679914735E-015,16.8,-20.0));
#384=AXIS2_PLACEMENT_3D('',#429,#430,#431);
#385=CARTESIAN_POINT('',(1.22464679914735E-015,20.0,-20.0));
#386=AXIS2_PLACEMENT_3D('',#432,#433,#434);
#387=CARTESIAN_POINT('',(1.10345121703663E-015,20.0,-18.02072594));
#388=AXIS2_PLACEMENT_3D('',#435,#436,#437);
#389=CARTESIAN_POINT('',(1.04094977927525E-015,18.23205081,-17.0));
#390=AXIS2_PLACEMENT_3D('',#438,#439,#440);
#391=CARTESIAN_POINT('',(1.04094977927525E-015,17.4,-17.0));
#392=AXIS2_PLACEMENT_3D('',#441,#442,#443);
#393=CARTESIAN_POINT('',(9.18485099360515E-016,17.4,-15.0));
#394=AXIS2_PLACEMENT_3D('',#444,#445,#446);
#395=CARTESIAN_POINT('',(9.18485099360515E-016,18.23205081,-15.0));
#396=AXIS2_PLACEMENT_3D('',#447,#448,#449);
#397=CARTESIAN_POINT('',(8.55983661599131E-016,20.0,-13.97927406));
#398=AXIS2_PLACEMENT_3D('',#450,#451,#452);
#399=CARTESIAN_POINT('',(-2.46519032881566E-031,20.0,2.44929359829471E-015));
#400=AXIS2_PLACEMENT_3D('',#453,#454,#455);
#401=CARTESIAN_POINT('',(-1.86121869825582E-031,15.1,1.8492166667125E-015));
#402=AXIS2_PLACEMENT_3D('',#456,#457,#458);
#403=CARTESIAN_POINT('',(-1.22464679914736E-016,15.1,2.0));
#404=AXIS2_PLACEMENT_3D('',#459,#460,#461);
#405=CARTESIAN_POINT('',(-1.22464679914735E-015,-2.44929359829471E-015,20.0));
#406=DIRECTION('',(-6.12323399573677E-017,-1.22464679914735E-016,1.0));
#407=DIRECTION('',(-1.23259516440783E-032,1.0,1.22464679914735E-016));
#408=CARTESIAN_POINT('',(4.28626379701574E-015,8.57252759403147E-015,-70.0));
#409=DIRECTION('',(-6.12323399573676E-017,-1.22464679914735E-016,1.0));
#410=DIRECTION('',(-1.23259516440783E-032,1.0,1.22464679914735E-016));
#411=CARTESIAN_POINT('',(4.24340115904558E-015,8.48680231809115E-015,-69.3));
#412=DIRECTION('',(-6.12323399573677E-017,-1.22464679914735E-016,1.0));
#413=DIRECTION('',(-1.23259516440783E-032,1.0,1.22464679914735E-016));
#414=CARTESIAN_POINT('',(4.24340115904558E-015,8.48680231809115E-015,-69.3));
#415=DIRECTION('',(-6.12323399573677E-017,-1.22464679914735E-016,1.0));
#416=DIRECTION('',(-1.23259516440783E-032,1.0,1.22464679914735E-016));
#417=CARTESIAN_POINT('',(3.40062945309376E-015,6.80125890618751E-015,-55.53649355));
#418=DIRECTION('',(-6.12323399573677E-017,-1.22464679914735E-016,1.0));
#419=DIRECTION('',(-1.23259516440783E-032,1.0,1.22464679914735E-016));
#420=CARTESIAN_POINT('',(2.14313189850787E-015,4.28626379701574E-015,-35.0));
#421=DIRECTION('',(-6.12323399573677E-017,-1.22464679914735E-016,1.0));
#422=DIRECTION('',(-1.23259516440783E-032,1.0,1.22464679914735E-016));
#423=CARTESIAN_POINT('',(2.0818995585505E-015,4.163799117101E-015,-34.0));
#424=DIRECTION('',(-6.12323399573677E-017,-1.22464679914735E-016,1.0));
#425=DIRECTION('',(-1.23259516440783E-032,1.0,1.22464679914735E-016));
#426=CARTESIAN_POINT('',(2.0818995585505E-015,4.163799117101E-015,-34.0));
#427=DIRECTION('',(-6.12323399573677E-017,-1.22464679914735E-016,1.0));
#428=DIRECTION('',(-1.23259516440783E-032,1.0,1.22464679914735E-016));
#429=CARTESIAN_POINT('',(1.22464679914735E-015,2.44929359829471E-015,-20.0));
#430=DIRECTION('',(-6.12323399573677E-017,-1.22464679914735E-016,1.0));
#431=DIRECTION('',(-1.23259516440783E-032,1.0,1.22464679914735E-016));
#432=CARTESIAN_POINT('',(1.22464679914735E-015,2.44929359829471E-015,-20.0));
#433=DIRECTION('',(-6.12323399573677E-017,-1.22464679914735E-016,1.0));
#434=DIRECTION('',(-1.23259516440783E-032,1.0,1.22464679914735E-016));
#435=CARTESIAN_POINT('',(1.10345121703663E-015,2.20690243407327E-015,-18.02072594));
#436=DIRECTION('',(-6.12323399573677E-017,-1.22464679914735E-016,1.0));
#437=DIRECTION('',(-1.23259516440783E-032,1.0,1.22464679914735E-016));
#438=CARTESIAN_POINT('',(1.04094977927525E-015,2.0818995585505E-015,-17.0));
#439=DIRECTION('',(-6.12323399573677E-017,-1.22464679914735E-016,1.0));
#440=DIRECTION('',(-1.23259516440783E-032,1.0,1.22464679914735E-016));
#441=CARTESIAN_POINT('',(1.04094977927525E-015,2.0818995585505E-015,-17.0));
#442=DIRECTION('',(-6.12323399573677E-017,-1.22464679914735E-016,1.0));
#443=DIRECTION('',(-1.23259516440783E-032,1.0,1.22464679914735E-016));
#444=CARTESIAN_POINT('',(9.18485099360515E-016,1.83697019872103E-015,-15.0));
#445=DIRECTION('',(-6.12323399573677E-017,-1.22464679914735E-016,1.0));
#446=DIRECTION('',(-1.23259516440783E-032,1.0,1.22464679914735E-016));
#447=CARTESIAN_POINT('',(9.18485099360515E-016,1.83697019872103E-015,-15.0));
#448=DIRECTION('',(-6.12323399573677E-017,-1.22464679914735E-016,1.0));
#449=DIRECTION('',(-1.23259516440783E-032,1.0,1.22464679914735E-016));
#450=CARTESIAN_POINT('',(8.55983661599131E-016,1.71196732319826E-015,-13.97927406));
#451=DIRECTION('',(-6.12323399573677E-017,-1.22464679914735E-016,1.0));
#452=DIRECTION('',(-1.23259516440783E-032,1.0,1.22464679914735E-016));
#453=CARTESIAN_POINT('',(0.0,0.0,0.0));
#454=DIRECTION('',(-6.12323399573677E-017,-1.22464679914735E-016,1.0));
#455=DIRECTION('',(-1.23259516440783E-032,1.0,1.22464679914735E-016));
#456=CARTESIAN_POINT('',(0.0,0.0,0.0));
#457=DIRECTION('',(-6.12323399573677E-017,-1.22464679914735E-016,1.0));
#458=DIRECTION('',(-1.23259516440783E-032,1.0,1.22464679914735E-016));
#459=CARTESIAN_POINT('',(-1.22464679914735E-016,-2.44929359829471E-016,2.0));
#460=DIRECTION('',(-6.12323399573677E-017,-1.22464679914735E-016,1.0));
#461=DIRECTION('',(-1.23259516440783E-032,1.0,1.22464679914735E-016));
ENDSEC;
END-ISO-10303-21;
