ISO-10303-21;
HEADER;
FILE_DESCRIPTION((''),'1');
FILE_NAME('//Big_tech03/bigt/Translate/21_\X2\8F2A90ED7DDA\X0\-DXF/13_\X2\30CF30A430C930ED30C130E330C330AF\X0\ HDC/HSK/A 40/HSK-A40-HDC12-80.stp','2012-05-15T05:15:30',(''),(''),'Spatial Interop R18','Kubotek KeyCreator V8.5.1 (14335)',' ');
FILE_SCHEMA(('CONFIG_CONTROL_DESIGN'));
ENDSEC;
DATA;
#1=DESIGN_CONTEXT('',#27,'design');
#2=APPLICATION_PROTOCOL_DEFINITION('INTERNATIONAL STANDARD','config_control_design',1994,#27);
#3=PRODUCT_CATEGORY_RELATIONSHIP('NONE','NONE',#28,#29);
#4=DATE_AND_TIME(#30,#31);
#5=DATE_TIME_ROLE('creation_date');
#6=DATE_TIME_ROLE('classification_date');
#7=PERSON_AND_ORGANIZATION_ROLE('creator');
#8=PERSON_AND_ORGANIZATION_ROLE('design_supplier');
#9=PERSON_AND_ORGANIZATION_ROLE('classification_officer');
#10=PERSON_AND_ORGANIZATION_ROLE('design_owner');
#11=APPROVAL_PERSON_ORGANIZATION(#32,#33,#34);
#12=APPROVAL_DATE_TIME(#4,#33);
#13=CC_DESIGN_APPROVAL(#33,(#35,#36,#37));
#14=CC_DESIGN_DATE_AND_TIME_ASSIGNMENT(#4,#5,(#37));
#15=CC_DESIGN_DATE_AND_TIME_ASSIGNMENT(#4,#6,(#35));
#16=CC_DESIGN_PERSON_AND_ORGANIZATION_ASSIGNMENT(#32,#10,(#38));
#17=CC_DESIGN_PERSON_AND_ORGANIZATION_ASSIGNMENT(#32,#7,(#37));
#18=CC_DESIGN_PERSON_AND_ORGANIZATION_ASSIGNMENT(#32,#7,(#36));
#19=CC_DESIGN_PERSON_AND_ORGANIZATION_ASSIGNMENT(#32,#8,(#36));
#20=CC_DESIGN_SECURITY_CLASSIFICATION(#35,(#36));
#21=CC_DESIGN_PERSON_AND_ORGANIZATION_ASSIGNMENT(#32,#9,(#35));
#22=SHAPE_DEFINITION_REPRESENTATION(#39,#40);
#23= (GEOMETRIC_REPRESENTATION_CONTEXT(3)GLOBAL_UNCERTAINTY_ASSIGNED_CONTEXT((#43))GLOBAL_UNIT_ASSIGNED_CONTEXT((#45,#46,#47))REPRESENTATION_CONTEXT('NONE','WORKSPACE'));
#27=APPLICATION_CONTEXT('CONFIGURATION CONTROLLED 3D DESIGNS OF MECHANICAL PARTS AND ASSEMBLIES');
#28=PRODUCT_CATEGORY('part','NONE');
#29=PRODUCT_RELATED_PRODUCT_CATEGORY('detail',' ',(#38));
#30=CALENDAR_DATE(2012,15,4);
#31=LOCAL_TIME(14,15,30.0,#49);
#32=PERSON_AND_ORGANIZATION(#50,#51);
#33=APPROVAL(#52,'SOLID MODEL');
#34=APPROVAL_ROLE('APPROVED');
#35=SECURITY_CLASSIFICATION('','',#53);
#36=PRODUCT_DEFINITION_FORMATION_WITH_SPECIFIED_SOURCE(' ','NONE',#38,.NOT_KNOWN.);
#37=PRODUCT_DEFINITION('NONE','NONE',#36,#1);
#38=PRODUCT('1','1','PART-1-DESC',(#54));
#39=PRODUCT_DEFINITION_SHAPE('NONE','NONE',#37);
#40=ADVANCED_BREP_SHAPE_REPRESENTATION('1',(#55,#56),#23);
#43=UNCERTAINTY_MEASURE_WITH_UNIT(LENGTH_MEASURE(1.0E-006),#45,'','');
#45= (CONVERSION_BASED_UNIT('MILLIMETRE',#59)LENGTH_UNIT()NAMED_UNIT(#62));
#46= (NAMED_UNIT(#64)PLANE_ANGLE_UNIT()SI_UNIT($,.RADIAN.));
#47= (NAMED_UNIT(#64)SOLID_ANGLE_UNIT()SI_UNIT($,.STERADIAN.));
#49=COORDINATED_UNIVERSAL_TIME_OFFSET(9,0,.AHEAD.);
#50=PERSON('','UNSPECIFIED',$,$,$,$);
#51=ORGANIZATION('UNSPECIFIED','UNSPECIFIED','UNSPECIFIED');
#52=APPROVAL_STATUS('approved');
#53=SECURITY_CLASSIFICATION_LEVEL('unclassified');
#54=MECHANICAL_CONTEXT('',#27,'mechanical');
#55=MANIFOLD_SOLID_BREP('1',#70);
#56=AXIS2_PLACEMENT_3D('',#71,#72,#73);
#59=LENGTH_MEASURE_WITH_UNIT(LENGTH_MEASURE(1.0),#74);
#62=DIMENSIONAL_EXPONENTS(1.0,0.0,0.0,0.0,0.0,0.0,0.0);
#64=DIMENSIONAL_EXPONENTS(0.0,0.0,0.0,0.0,0.0,0.0,0.0);
#70=CLOSED_SHELL('',(#75,#76,#77,#78,#79,#80,#81,#82,#83,#84,#85,#86,#87,#88,#89,#90,#91,#92,#93));
#71=CARTESIAN_POINT('',(0.0,0.0,0.0));
#72=DIRECTION('',(0.0,0.0,1.0));
#73=DIRECTION('',(1.0,0.0,0.0));
#74= (NAMED_UNIT(#62)LENGTH_UNIT()SI_UNIT(.MILLI.,.METRE.));
#75=ADVANCED_FACE('',(#95),#96,.T.);
#76=ADVANCED_FACE('',(#97),#98,.T.);
#77=ADVANCED_FACE('',(#99,#100),#101,.T.);
#78=ADVANCED_FACE('',(#102,#103),#104,.T.);
#79=ADVANCED_FACE('',(#105,#106),#107,.T.);
#80=ADVANCED_FACE('',(#108,#109),#110,.T.);
#81=ADVANCED_FACE('',(#111,#112),#113,.T.);
#82=ADVANCED_FACE('',(#114,#115),#116,.T.);
#83=ADVANCED_FACE('',(#117,#118),#119,.T.);
#84=ADVANCED_FACE('',(#120,#121),#122,.T.);
#85=ADVANCED_FACE('',(#123,#124),#125,.T.);
#86=ADVANCED_FACE('',(#126,#127),#128,.T.);
#87=ADVANCED_FACE('',(#129,#130),#131,.T.);
#88=ADVANCED_FACE('',(#132,#133),#134,.T.);
#89=ADVANCED_FACE('',(#135,#136),#137,.T.);
#90=ADVANCED_FACE('',(#138,#139),#140,.T.);
#91=ADVANCED_FACE('',(#141,#142),#143,.T.);
#92=ADVANCED_FACE('',(#144,#145),#146,.T.);
#93=ADVANCED_FACE('',(#147,#148),#149,.T.);
#95=FACE_OUTER_BOUND('',#150,.T.);
#96=PLANE('',#151);
#97=FACE_OUTER_BOUND('',#152,.T.);
#98=PLANE('',#153);
#99=FACE_BOUND('',#154,.T.);
#100=FACE_BOUND('',#155,.T.);
#101=CONICAL_SURFACE('',#156,8.63786796,0.785398177683148);
#102=FACE_OUTER_BOUND('',#157,.T.);
#103=FACE_BOUND('',#158,.T.);
#104=PLANE('',#159);
#105=FACE_BOUND('',#160,.T.);
#106=FACE_BOUND('',#161,.T.);
#107=CONICAL_SURFACE('',#162,14.9687610505811,0.130899694085449);
#108=FACE_BOUND('',#163,.T.);
#109=FACE_BOUND('',#164,.T.);
#110=CYLINDRICAL_SURFACE('',#165,16.0);
#111=FACE_BOUND('',#166,.T.);
#112=FACE_BOUND('',#167,.T.);
#113=CONICAL_SURFACE('',#168,16.4,0.78539816339745);
#114=FACE_BOUND('',#169,.T.);
#115=FACE_BOUND('',#170,.T.);
#116=CYLINDRICAL_SURFACE('',#171,16.8);
#117=FACE_OUTER_BOUND('',#172,.T.);
#118=FACE_BOUND('',#173,.T.);
#119=PLANE('',#174);
#120=FACE_BOUND('',#175,.T.);
#121=FACE_BOUND('',#176,.T.);
#122=CYLINDRICAL_SURFACE('',#177,20.0);
#123=FACE_BOUND('',#178,.T.);
#124=FACE_BOUND('',#179,.T.);
#125=CONICAL_SURFACE('',#180,19.116025405,1.04719755151904);
#126=FACE_BOUND('',#181,.T.);
#127=FACE_OUTER_BOUND('',#182,.T.);
#128=PLANE('',#183);
#129=FACE_BOUND('',#184,.T.);
#130=FACE_BOUND('',#185,.T.);
#131=CYLINDRICAL_SURFACE('',#186,17.4);
#132=FACE_OUTER_BOUND('',#187,.T.);
#133=FACE_BOUND('',#188,.T.);
#134=PLANE('',#189);
#135=FACE_BOUND('',#190,.T.);
#136=FACE_BOUND('',#191,.T.);
#137=CONICAL_SURFACE('',#192,19.116025405,1.04719755151904);
#138=FACE_BOUND('',#193,.T.);
#139=FACE_BOUND('',#194,.T.);
#140=CYLINDRICAL_SURFACE('',#195,20.0);
#141=FACE_BOUND('',#196,.T.);
#142=FACE_OUTER_BOUND('',#197,.T.);
#143=PLANE('',#198);
#144=FACE_BOUND('',#199,.T.);
#145=FACE_BOUND('',#200,.T.);
#146=CYLINDRICAL_SURFACE('',#201,15.1);
#147=FACE_BOUND('',#202,.T.);
#148=FACE_BOUND('',#203,.T.);
#149=CONICAL_SURFACE('',#204,14.6500000023492,0.0499583954615709);
#150=EDGE_LOOP('',(#205));
#151=AXIS2_PLACEMENT_3D('',#206,#207,#208);
#152=EDGE_LOOP('',(#209));
#153=AXIS2_PLACEMENT_3D('',#210,#211,#212);
#154=EDGE_LOOP('',(#213));
#155=EDGE_LOOP('',(#214));
#156=AXIS2_PLACEMENT_3D('',#215,#216,#217);
#157=EDGE_LOOP('',(#218));
#158=EDGE_LOOP('',(#219));
#159=AXIS2_PLACEMENT_3D('',#220,#221,#222);
#160=EDGE_LOOP('',(#223));
#161=EDGE_LOOP('',(#224));
#162=AXIS2_PLACEMENT_3D('',#225,#226,#227);
#163=EDGE_LOOP('',(#228));
#164=EDGE_LOOP('',(#229));
#165=AXIS2_PLACEMENT_3D('',#230,#231,#232);
#166=EDGE_LOOP('',(#233));
#167=EDGE_LOOP('',(#234));
#168=AXIS2_PLACEMENT_3D('',#235,#236,#237);
#169=EDGE_LOOP('',(#238));
#170=EDGE_LOOP('',(#239));
#171=AXIS2_PLACEMENT_3D('',#240,#241,#242);
#172=EDGE_LOOP('',(#243));
#173=EDGE_LOOP('',(#244));
#174=AXIS2_PLACEMENT_3D('',#245,#246,#247);
#175=EDGE_LOOP('',(#248));
#176=EDGE_LOOP('',(#249));
#177=AXIS2_PLACEMENT_3D('',#250,#251,#252);
#178=EDGE_LOOP('',(#253));
#179=EDGE_LOOP('',(#254));
#180=AXIS2_PLACEMENT_3D('',#255,#256,#257);
#181=EDGE_LOOP('',(#258));
#182=EDGE_LOOP('',(#259));
#183=AXIS2_PLACEMENT_3D('',#260,#261,#262);
#184=EDGE_LOOP('',(#263));
#185=EDGE_LOOP('',(#264));
#186=AXIS2_PLACEMENT_3D('',#265,#266,#267);
#187=EDGE_LOOP('',(#268));
#188=EDGE_LOOP('',(#269));
#189=AXIS2_PLACEMENT_3D('',#270,#271,#272);
#190=EDGE_LOOP('',(#273));
#191=EDGE_LOOP('',(#274));
#192=AXIS2_PLACEMENT_3D('',#275,#276,#277);
#193=EDGE_LOOP('',(#278));
#194=EDGE_LOOP('',(#279));
#195=AXIS2_PLACEMENT_3D('',#280,#281,#282);
#196=EDGE_LOOP('',(#283));
#197=EDGE_LOOP('',(#284));
#198=AXIS2_PLACEMENT_3D('',#285,#286,#287);
#199=EDGE_LOOP('',(#288));
#200=EDGE_LOOP('',(#289));
#201=AXIS2_PLACEMENT_3D('',#290,#291,#292);
#202=EDGE_LOOP('',(#293));
#203=EDGE_LOOP('',(#294));
#204=AXIS2_PLACEMENT_3D('',#295,#296,#297);
#205=ORIENTED_EDGE('',*,*,#298,.T.);
#206=CARTESIAN_POINT('',(-1.22464679914735E-015,7.10000000234919,20.0));
#207=DIRECTION('',(-6.12323399573677E-017,-1.22464679914735E-016,1.0));
#208=DIRECTION('',(-1.23259516440783E-032,1.0,1.22464679914735E-016));
#209=ORIENTED_EDGE('',*,*,#299,.F.);
#210=CARTESIAN_POINT('',(4.89858719658941E-015,4.14393397500001,-80.0));
#211=DIRECTION('',(6.12323399573677E-017,1.22464679914735E-016,-1.0));
#212=DIRECTION('',(1.23259516440783E-032,-1.0,-1.22464679914735E-016));
#213=ORIENTED_EDGE('',*,*,#300,.F.);
#214=ORIENTED_EDGE('',*,*,#299,.T.);
#215=CARTESIAN_POINT('',(4.87715587760433E-015,9.75431175520867E-015,-79.65));
#216=DIRECTION('',(-6.12323399573677E-017,-1.22464679914735E-016,1.0));
#217=DIRECTION('',(-1.23259516440783E-032,1.0,1.22464679914735E-016));
#218=ORIENTED_EDGE('',*,*,#301,.F.);
#219=ORIENTED_EDGE('',*,*,#300,.T.);
#220=CARTESIAN_POINT('',(4.85572455861925E-015,11.4626950355811,-79.3));
#221=DIRECTION('',(6.12323399573677E-017,1.22464679914735E-016,-1.0));
#222=DIRECTION('',(1.23259516440783E-032,-1.0,-1.22464679914735E-016));
#223=ORIENTED_EDGE('',*,*,#302,.F.);
#224=ORIENTED_EDGE('',*,*,#301,.T.);
#225=CARTESIAN_POINT('',(4.37608934474509E-015,8.75217868949018E-015,-71.46696252));
#226=DIRECTION('',(-6.12323399573677E-017,-1.22464679914735E-016,1.0));
#227=DIRECTION('',(-1.23259516440783E-032,1.0,1.22464679914735E-016));
#228=ORIENTED_EDGE('',*,*,#303,.F.);
#229=ORIENTED_EDGE('',*,*,#302,.T.);
#230=CARTESIAN_POINT('',(2.98917684471072E-015,5.97835368942143E-015,-48.81696252));
#231=DIRECTION('',(6.12323399573677E-017,1.22464679914735E-016,-1.0));
#232=DIRECTION('',(-1.23259516440783E-032,1.0,1.22464679914735E-016));
#233=ORIENTED_EDGE('',*,*,#304,.F.);
#234=ORIENTED_EDGE('',*,*,#303,.T.);
#235=CARTESIAN_POINT('',(2.05740662256755E-015,4.11481324513511E-015,-33.6));
#236=DIRECTION('',(-6.12323399573676E-017,-1.22464679914735E-016,1.0));
#237=DIRECTION('',(-1.23259516440783E-032,1.0,1.22464679914735E-016));
#238=ORIENTED_EDGE('',*,*,#305,.F.);
#239=ORIENTED_EDGE('',*,*,#304,.T.);
#240=CARTESIAN_POINT('',(1.62878024286598E-015,3.25756048573196E-015,-26.6));
#241=DIRECTION('',(6.12323399573677E-017,1.22464679914735E-016,-1.0));
#242=DIRECTION('',(-1.23259516440783E-032,1.0,1.22464679914735E-016));
#243=ORIENTED_EDGE('',*,*,#306,.F.);
#244=ORIENTED_EDGE('',*,*,#305,.T.);
#245=CARTESIAN_POINT('',(1.22464679914735E-015,18.4,-20.0));
#246=DIRECTION('',(6.12323399573677E-017,1.22464679914735E-016,-1.0));
#247=DIRECTION('',(1.23259516440783E-032,-1.0,-1.22464679914735E-016));
#248=ORIENTED_EDGE('',*,*,#307,.F.);
#249=ORIENTED_EDGE('',*,*,#306,.T.);
#250=CARTESIAN_POINT('',(1.16404900809199E-015,2.32809801618399E-015,-19.01036297));
#251=DIRECTION('',(6.12323399573677E-017,1.22464679914735E-016,-1.0));
#252=DIRECTION('',(-1.23259516440783E-032,1.0,1.22464679914735E-016));
#253=ORIENTED_EDGE('',*,*,#308,.F.);
#254=ORIENTED_EDGE('',*,*,#307,.T.);
#255=CARTESIAN_POINT('',(1.07220049815594E-015,2.14440099631188E-015,-17.51036297));
#256=DIRECTION('',(6.12323399573677E-017,1.22464679914735E-016,-1.0));
#257=DIRECTION('',(-1.23259516440783E-032,1.0,1.22464679914735E-016));
#258=ORIENTED_EDGE('',*,*,#309,.F.);
#259=ORIENTED_EDGE('',*,*,#308,.T.);
#260=CARTESIAN_POINT('',(1.04094977927525E-015,17.816025405,-17.0));
#261=DIRECTION('',(-6.12323399573677E-017,-1.22464679914735E-016,1.0));
#262=DIRECTION('',(-1.23259516440783E-032,1.0,1.22464679914735E-016));
#263=ORIENTED_EDGE('',*,*,#310,.F.);
#264=ORIENTED_EDGE('',*,*,#309,.T.);
#265=CARTESIAN_POINT('',(9.79717439317883E-016,1.95943487863577E-015,-16.0));
#266=DIRECTION('',(6.12323399573677E-017,1.22464679914735E-016,-1.0));
#267=DIRECTION('',(-1.23259516440783E-032,1.0,1.22464679914735E-016));
#268=ORIENTED_EDGE('',*,*,#311,.F.);
#269=ORIENTED_EDGE('',*,*,#310,.T.);
#270=CARTESIAN_POINT('',(9.18485099360515E-016,17.816025405,-15.0));
#271=DIRECTION('',(6.12323399573677E-017,1.22464679914735E-016,-1.0));
#272=DIRECTION('',(1.23259516440783E-032,-1.0,-1.22464679914735E-016));
#273=ORIENTED_EDGE('',*,*,#312,.F.);
#274=ORIENTED_EDGE('',*,*,#311,.T.);
#275=CARTESIAN_POINT('',(8.87234380479823E-016,1.77446876095965E-015,-14.48963703));
#276=DIRECTION('',(-6.12323399573677E-017,-1.22464679914735E-016,1.0));
#277=DIRECTION('',(-1.23259516440783E-032,1.0,1.22464679914735E-016));
#278=ORIENTED_EDGE('',*,*,#313,.F.);
#279=ORIENTED_EDGE('',*,*,#312,.T.);
#280=CARTESIAN_POINT('',(4.27991830799566E-016,8.55983661599131E-016,-6.98963703));
#281=DIRECTION('',(6.12323399573677E-017,1.22464679914735E-016,-1.0));
#282=DIRECTION('',(-1.23259516440783E-032,1.0,1.22464679914735E-016));
#283=ORIENTED_EDGE('',*,*,#314,.F.);
#284=ORIENTED_EDGE('',*,*,#313,.T.);
#285=CARTESIAN_POINT('',(-2.16320451353574E-031,17.55,2.1492551325036E-015));
#286=DIRECTION('',(-6.12323399573677E-017,-1.22464679914735E-016,1.0));
#287=DIRECTION('',(-1.23259516440783E-032,1.0,1.22464679914735E-016));
#288=ORIENTED_EDGE('',*,*,#315,.F.);
#289=ORIENTED_EDGE('',*,*,#314,.T.);
#290=CARTESIAN_POINT('',(-6.12323399573677E-017,-1.22464679914735E-016,1.0));
#291=DIRECTION('',(6.12323399573677E-017,1.22464679914735E-016,-1.0));
#292=DIRECTION('',(-1.23259516440783E-032,1.0,1.22464679914735E-016));
#293=ORIENTED_EDGE('',*,*,#298,.F.);
#294=ORIENTED_EDGE('',*,*,#315,.T.);
#295=CARTESIAN_POINT('',(-6.73555739531044E-016,-1.34711147906209E-015,11.0));
#296=DIRECTION('',(6.12323399573676E-017,1.22464679914735E-016,-1.0));
#297=DIRECTION('',(-1.23259516440783E-032,1.0,1.22464679914735E-016));
#298=EDGE_CURVE('',#316,#316,#317,.T.);
#299=EDGE_CURVE('',#318,#318,#319,.T.);
#300=EDGE_CURVE('',#320,#320,#321,.T.);
#301=EDGE_CURVE('',#322,#322,#323,.T.);
#302=EDGE_CURVE('',#324,#324,#325,.T.);
#303=EDGE_CURVE('',#326,#326,#327,.T.);
#304=EDGE_CURVE('',#328,#328,#329,.T.);
#305=EDGE_CURVE('',#330,#330,#331,.T.);
#306=EDGE_CURVE('',#332,#332,#333,.T.);
#307=EDGE_CURVE('',#334,#334,#335,.T.);
#308=EDGE_CURVE('',#336,#336,#337,.T.);
#309=EDGE_CURVE('',#338,#338,#339,.T.);
#310=EDGE_CURVE('',#340,#340,#341,.T.);
#311=EDGE_CURVE('',#342,#342,#343,.T.);
#312=EDGE_CURVE('',#344,#344,#345,.T.);
#313=EDGE_CURVE('',#346,#346,#347,.T.);
#314=EDGE_CURVE('',#348,#348,#349,.T.);
#315=EDGE_CURVE('',#350,#350,#351,.T.);
#316=VERTEX_POINT('',#352);
#317=CIRCLE('',#353,14.2000000046984);
#318=VERTEX_POINT('',#354);
#319=CIRCLE('',#355,8.28786795);
#320=VERTEX_POINT('',#356);
#321=CIRCLE('',#357,8.98786797);
#322=VERTEX_POINT('',#358);
#323=CIRCLE('',#359,13.9375221011623);
#324=VERTEX_POINT('',#360);
#325=CIRCLE('',#361,16.0);
#326=VERTEX_POINT('',#362);
#327=CIRCLE('',#363,16.0);
#328=VERTEX_POINT('',#364);
#329=CIRCLE('',#365,16.8);
#330=VERTEX_POINT('',#366);
#331=CIRCLE('',#367,16.8);
#332=VERTEX_POINT('',#368);
#333=CIRCLE('',#369,20.0);
#334=VERTEX_POINT('',#370);
#335=CIRCLE('',#371,20.0);
#336=VERTEX_POINT('',#372);
#337=CIRCLE('',#373,18.23205081);
#338=VERTEX_POINT('',#374);
#339=CIRCLE('',#375,17.4);
#340=VERTEX_POINT('',#376);
#341=CIRCLE('',#377,17.4);
#342=VERTEX_POINT('',#378);
#343=CIRCLE('',#379,18.23205081);
#344=VERTEX_POINT('',#380);
#345=CIRCLE('',#381,20.0);
#346=VERTEX_POINT('',#382);
#347=CIRCLE('',#383,20.0);
#348=VERTEX_POINT('',#384);
#349=CIRCLE('',#385,15.1);
#350=VERTEX_POINT('',#386);
#351=CIRCLE('',#387,15.1);
#352=CARTESIAN_POINT('',(-1.22464679914735E-015,14.2000000046984,20.0));
#353=AXIS2_PLACEMENT_3D('',#388,#389,#390);
#354=CARTESIAN_POINT('',(4.89858719658941E-015,8.28786795000001,-80.0));
#355=AXIS2_PLACEMENT_3D('',#391,#392,#393);
#356=CARTESIAN_POINT('',(4.85572455861925E-015,8.98786797000001,-79.3));
#357=AXIS2_PLACEMENT_3D('',#394,#395,#396);
#358=CARTESIAN_POINT('',(4.85572455861925E-015,13.9375221011623,-79.3));
#359=AXIS2_PLACEMENT_3D('',#397,#398,#399);
#360=CARTESIAN_POINT('',(3.89645413087093E-015,16.0,-63.63392504));
#361=AXIS2_PLACEMENT_3D('',#400,#401,#402);
#362=CARTESIAN_POINT('',(2.0818995585505E-015,16.0,-34.0));
#363=AXIS2_PLACEMENT_3D('',#403,#404,#405);
#364=CARTESIAN_POINT('',(2.03291368658461E-015,16.8,-33.2));
#365=AXIS2_PLACEMENT_3D('',#406,#407,#408);
#366=CARTESIAN_POINT('',(1.22464679914735E-015,16.8,-20.0));
#367=AXIS2_PLACEMENT_3D('',#409,#410,#411);
#368=CARTESIAN_POINT('',(1.22464679914735E-015,20.0,-20.0));
#369=AXIS2_PLACEMENT_3D('',#412,#413,#414);
#370=CARTESIAN_POINT('',(1.10345121703663E-015,20.0,-18.02072594));
#371=AXIS2_PLACEMENT_3D('',#415,#416,#417);
#372=CARTESIAN_POINT('',(1.04094977927525E-015,18.23205081,-17.0));
#373=AXIS2_PLACEMENT_3D('',#418,#419,#420);
#374=CARTESIAN_POINT('',(1.04094977927525E-015,17.4,-17.0));
#375=AXIS2_PLACEMENT_3D('',#421,#422,#423);
#376=CARTESIAN_POINT('',(9.18485099360515E-016,17.4,-15.0));
#377=AXIS2_PLACEMENT_3D('',#424,#425,#426);
#378=CARTESIAN_POINT('',(9.18485099360515E-016,18.23205081,-15.0));
#379=AXIS2_PLACEMENT_3D('',#427,#428,#429);
#380=CARTESIAN_POINT('',(8.55983661599131E-016,20.0,-13.97927406));
#381=AXIS2_PLACEMENT_3D('',#430,#431,#432);
#382=CARTESIAN_POINT('',(-2.46519032881566E-031,20.0,2.44929359829471E-015));
#383=AXIS2_PLACEMENT_3D('',#433,#434,#435);
#384=CARTESIAN_POINT('',(-1.86121869825582E-031,15.1,1.8492166667125E-015));
#385=AXIS2_PLACEMENT_3D('',#436,#437,#438);
#386=CARTESIAN_POINT('',(-1.22464679914736E-016,15.1,2.0));
#387=AXIS2_PLACEMENT_3D('',#439,#440,#441);
#388=CARTESIAN_POINT('',(-1.22464679914735E-015,-2.44929359829471E-015,20.0));
#389=DIRECTION('',(-6.12323399573677E-017,-1.22464679914735E-016,1.0));
#390=DIRECTION('',(-1.23259516440783E-032,1.0,1.22464679914735E-016));
#391=CARTESIAN_POINT('',(4.89858719658941E-015,9.79717439317882E-015,-80.0));
#392=DIRECTION('',(-6.12323399573677E-017,-1.22464679914735E-016,1.0));
#393=DIRECTION('',(-1.23259516440783E-032,1.0,1.22464679914735E-016));
#394=CARTESIAN_POINT('',(4.85572455861925E-015,9.71144911723851E-015,-79.3));
#395=DIRECTION('',(-6.12323399573677E-017,-1.22464679914735E-016,1.0));
#396=DIRECTION('',(-1.23259516440783E-032,1.0,1.22464679914735E-016));
#397=CARTESIAN_POINT('',(4.85572455861925E-015,9.71144911723851E-015,-79.3));
#398=DIRECTION('',(-6.12323399573677E-017,-1.22464679914735E-016,1.0));
#399=DIRECTION('',(-1.23259516440783E-032,1.0,1.22464679914735E-016));
#400=CARTESIAN_POINT('',(3.89645413087093E-015,7.79290826174186E-015,-63.63392504));
#401=DIRECTION('',(-6.12323399573677E-017,-1.22464679914735E-016,1.0));
#402=DIRECTION('',(-1.23259516440783E-032,1.0,1.22464679914735E-016));
#403=CARTESIAN_POINT('',(2.0818995585505E-015,4.163799117101E-015,-34.0));
#404=DIRECTION('',(-6.12323399573677E-017,-1.22464679914735E-016,1.0));
#405=DIRECTION('',(-1.23259516440783E-032,1.0,1.22464679914735E-016));
#406=CARTESIAN_POINT('',(2.03291368658461E-015,4.06582737316921E-015,-33.2));
#407=DIRECTION('',(-6.12323399573677E-017,-1.22464679914735E-016,1.0));
#408=DIRECTION('',(-1.23259516440783E-032,1.0,1.22464679914735E-016));
#409=CARTESIAN_POINT('',(1.22464679914735E-015,2.44929359829471E-015,-20.0));
#410=DIRECTION('',(-6.12323399573677E-017,-1.22464679914735E-016,1.0));
#411=DIRECTION('',(-1.23259516440783E-032,1.0,1.22464679914735E-016));
#412=CARTESIAN_POINT('',(1.22464679914735E-015,2.44929359829471E-015,-20.0));
#413=DIRECTION('',(-6.12323399573677E-017,-1.22464679914735E-016,1.0));
#414=DIRECTION('',(-1.23259516440783E-032,1.0,1.22464679914735E-016));
#415=CARTESIAN_POINT('',(1.10345121703663E-015,2.20690243407327E-015,-18.02072594));
#416=DIRECTION('',(-6.12323399573677E-017,-1.22464679914735E-016,1.0));
#417=DIRECTION('',(-1.23259516440783E-032,1.0,1.22464679914735E-016));
#418=CARTESIAN_POINT('',(1.04094977927525E-015,2.0818995585505E-015,-17.0));
#419=DIRECTION('',(-6.12323399573677E-017,-1.22464679914735E-016,1.0));
#420=DIRECTION('',(-1.23259516440783E-032,1.0,1.22464679914735E-016));
#421=CARTESIAN_POINT('',(1.04094977927525E-015,2.0818995585505E-015,-17.0));
#422=DIRECTION('',(-6.12323399573677E-017,-1.22464679914735E-016,1.0));
#423=DIRECTION('',(-1.23259516440783E-032,1.0,1.22464679914735E-016));
#424=CARTESIAN_POINT('',(9.18485099360515E-016,1.83697019872103E-015,-15.0));
#425=DIRECTION('',(-6.12323399573677E-017,-1.22464679914735E-016,1.0));
#426=DIRECTION('',(-1.23259516440783E-032,1.0,1.22464679914735E-016));
#427=CARTESIAN_POINT('',(9.18485099360515E-016,1.83697019872103E-015,-15.0));
#428=DIRECTION('',(-6.12323399573677E-017,-1.22464679914735E-016,1.0));
#429=DIRECTION('',(-1.23259516440783E-032,1.0,1.22464679914735E-016));
#430=CARTESIAN_POINT('',(8.55983661599131E-016,1.71196732319826E-015,-13.97927406));
#431=DIRECTION('',(-6.12323399573677E-017,-1.22464679914735E-016,1.0));
#432=DIRECTION('',(-1.23259516440783E-032,1.0,1.22464679914735E-016));
#433=CARTESIAN_POINT('',(0.0,0.0,0.0));
#434=DIRECTION('',(-6.12323399573677E-017,-1.22464679914735E-016,1.0));
#435=DIRECTION('',(-1.23259516440783E-032,1.0,1.22464679914735E-016));
#436=CARTESIAN_POINT('',(0.0,0.0,0.0));
#437=DIRECTION('',(-6.12323399573677E-017,-1.22464679914735E-016,1.0));
#438=DIRECTION('',(-1.23259516440783E-032,1.0,1.22464679914735E-016));
#439=CARTESIAN_POINT('',(-1.22464679914735E-016,-2.44929359829471E-016,2.0));
#440=DIRECTION('',(-6.12323399573677E-017,-1.22464679914735E-016,1.0));
#441=DIRECTION('',(-1.23259516440783E-032,1.0,1.22464679914735E-016));
ENDSEC;
END-ISO-10303-21;
