ISO-10303-21;
HEADER;
FILE_DESCRIPTION((''),'1');
FILE_NAME('//Big_tech03/bigt/Translate/21_\X2\8F2A90ED7DDA\X0\-DXF/71_\X2\5207524A5DE55177\X0\/01_\X2\30A830F330C930DF30EB52A05DE5\X0\/01_\X2\30D530EB30AB30C330C830DF30EB\X0\ FCM/HSK/A 40/HSK-A40-FCM25093-65.stp','2012-05-30T04:14:40',(''),(''),'Spatial Interop R18','Kubotek KeyCreator V8.5.1 (14335)',' ');
FILE_SCHEMA(('CONFIG_CONTROL_DESIGN'));
ENDSEC;
DATA;
#1=DESIGN_CONTEXT('',#27,'design');
#2=APPLICATION_PROTOCOL_DEFINITION('INTERNATIONAL STANDARD','config_control_design',1994,#27);
#3=PRODUCT_CATEGORY_RELATIONSHIP('NONE','NONE',#28,#29);
#4=DATE_AND_TIME(#30,#31);
#5=DATE_TIME_ROLE('creation_date');
#6=DATE_TIME_ROLE('classification_date');
#7=PERSON_AND_ORGANIZATION_ROLE('creator');
#8=PERSON_AND_ORGANIZATION_ROLE('design_supplier');
#9=PERSON_AND_ORGANIZATION_ROLE('classification_officer');
#10=PERSON_AND_ORGANIZATION_ROLE('design_owner');
#11=APPROVAL_PERSON_ORGANIZATION(#32,#33,#34);
#12=APPROVAL_DATE_TIME(#4,#33);
#13=CC_DESIGN_APPROVAL(#33,(#35,#36,#37));
#14=CC_DESIGN_DATE_AND_TIME_ASSIGNMENT(#4,#5,(#37));
#15=CC_DESIGN_DATE_AND_TIME_ASSIGNMENT(#4,#6,(#35));
#16=CC_DESIGN_PERSON_AND_ORGANIZATION_ASSIGNMENT(#32,#10,(#38));
#17=CC_DESIGN_PERSON_AND_ORGANIZATION_ASSIGNMENT(#32,#7,(#37));
#18=CC_DESIGN_PERSON_AND_ORGANIZATION_ASSIGNMENT(#32,#7,(#36));
#19=CC_DESIGN_PERSON_AND_ORGANIZATION_ASSIGNMENT(#32,#8,(#36));
#20=CC_DESIGN_SECURITY_CLASSIFICATION(#35,(#36));
#21=CC_DESIGN_PERSON_AND_ORGANIZATION_ASSIGNMENT(#32,#9,(#35));
#22=SHAPE_DEFINITION_REPRESENTATION(#39,#40);
#23= (GEOMETRIC_REPRESENTATION_CONTEXT(3)GLOBAL_UNCERTAINTY_ASSIGNED_CONTEXT((#43))GLOBAL_UNIT_ASSIGNED_CONTEXT((#45,#46,#47))REPRESENTATION_CONTEXT('NONE','WORKSPACE'));
#27=APPLICATION_CONTEXT('CONFIGURATION CONTROLLED 3D DESIGNS OF MECHANICAL PARTS AND ASSEMBLIES');
#28=PRODUCT_CATEGORY('part','NONE');
#29=PRODUCT_RELATED_PRODUCT_CATEGORY('detail',' ',(#38));
#30=CALENDAR_DATE(2012,30,4);
#31=LOCAL_TIME(13,14,40.0,#49);
#32=PERSON_AND_ORGANIZATION(#50,#51);
#33=APPROVAL(#52,'SOLID MODEL');
#34=APPROVAL_ROLE('APPROVED');
#35=SECURITY_CLASSIFICATION('','',#53);
#36=PRODUCT_DEFINITION_FORMATION_WITH_SPECIFIED_SOURCE(' ','NONE',#38,.NOT_KNOWN.);
#37=PRODUCT_DEFINITION('NONE','NONE',#36,#1);
#38=PRODUCT('1','1','PART-1-DESC',(#54));
#39=PRODUCT_DEFINITION_SHAPE('NONE','NONE',#37);
#40=ADVANCED_BREP_SHAPE_REPRESENTATION('1',(#55,#56),#23);
#43=UNCERTAINTY_MEASURE_WITH_UNIT(LENGTH_MEASURE(1.0E-006),#45,'','');
#45= (CONVERSION_BASED_UNIT('MILLIMETRE',#59)LENGTH_UNIT()NAMED_UNIT(#62));
#46= (NAMED_UNIT(#64)PLANE_ANGLE_UNIT()SI_UNIT($,.RADIAN.));
#47= (NAMED_UNIT(#64)SOLID_ANGLE_UNIT()SI_UNIT($,.STERADIAN.));
#49=COORDINATED_UNIVERSAL_TIME_OFFSET(9,0,.AHEAD.);
#50=PERSON('','UNSPECIFIED',$,$,$,$);
#51=ORGANIZATION('UNSPECIFIED','UNSPECIFIED','UNSPECIFIED');
#52=APPROVAL_STATUS('approved');
#53=SECURITY_CLASSIFICATION_LEVEL('unclassified');
#54=MECHANICAL_CONTEXT('',#27,'mechanical');
#55=MANIFOLD_SOLID_BREP('1',#70);
#56=AXIS2_PLACEMENT_3D('',#71,#72,#73);
#59=LENGTH_MEASURE_WITH_UNIT(LENGTH_MEASURE(1.0),#74);
#62=DIMENSIONAL_EXPONENTS(1.0,0.0,0.0,0.0,0.0,0.0,0.0);
#64=DIMENSIONAL_EXPONENTS(0.0,0.0,0.0,0.0,0.0,0.0,0.0);
#70=CLOSED_SHELL('',(#75,#76,#77,#78,#79,#80,#81,#82,#83,#84,#85,#86,#87,#88,#89,#90,#91,#92));
#71=CARTESIAN_POINT('',(0.0,0.0,0.0));
#72=DIRECTION('',(0.0,0.0,1.0));
#73=DIRECTION('',(1.0,0.0,0.0));
#74= (NAMED_UNIT(#62)LENGTH_UNIT()SI_UNIT(.MILLI.,.METRE.));
#75=ADVANCED_FACE('',(#94,#95),#96,.T.);
#76=ADVANCED_FACE('',(#97,#98),#99,.T.);
#77=ADVANCED_FACE('',(#100,#101),#102,.T.);
#78=ADVANCED_FACE('',(#103,#104),#105,.T.);
#79=ADVANCED_FACE('',(#106),#107,.T.);
#80=ADVANCED_FACE('',(#108,#109),#110,.T.);
#81=ADVANCED_FACE('',(#111,#112),#113,.T.);
#82=ADVANCED_FACE('',(#114,#115),#116,.T.);
#83=ADVANCED_FACE('',(#117,#118),#119,.T.);
#84=ADVANCED_FACE('',(#120,#121),#122,.T.);
#85=ADVANCED_FACE('',(#123,#124),#125,.T.);
#86=ADVANCED_FACE('',(#126,#127),#128,.T.);
#87=ADVANCED_FACE('',(#129,#130),#131,.T.);
#88=ADVANCED_FACE('',(#132,#133),#134,.T.);
#89=ADVANCED_FACE('',(#135,#136),#137,.T.);
#90=ADVANCED_FACE('',(#138,#139),#140,.T.);
#91=ADVANCED_FACE('',(#141),#142,.T.);
#92=ADVANCED_FACE('',(#143,#144),#145,.T.);
#94=FACE_BOUND('',#146,.T.);
#95=FACE_OUTER_BOUND('',#147,.T.);
#96=PLANE('',#148);
#97=FACE_BOUND('',#149,.T.);
#98=FACE_BOUND('',#150,.T.);
#99=CYLINDRICAL_SURFACE('',#151,11.9);
#100=FACE_BOUND('',#152,.T.);
#101=FACE_BOUND('',#153,.T.);
#102=CONICAL_SURFACE('',#154,12.2,0.369443267706021);
#103=FACE_BOUND('',#155,.T.);
#104=FACE_BOUND('',#156,.T.);
#105=CYLINDRICAL_SURFACE('',#157,12.5);
#106=FACE_OUTER_BOUND('',#158,.T.);
#107=PLANE('',#159);
#108=FACE_BOUND('',#160,.T.);
#109=FACE_BOUND('',#161,.T.);
#110=CYLINDRICAL_SURFACE('',#162,16.8);
#111=FACE_BOUND('',#163,.T.);
#112=FACE_BOUND('',#164,.T.);
#113=CYLINDRICAL_SURFACE('',#165,15.1);
#114=FACE_OUTER_BOUND('',#166,.T.);
#115=FACE_BOUND('',#167,.T.);
#116=PLANE('',#168);
#117=FACE_BOUND('',#169,.T.);
#118=FACE_BOUND('',#170,.T.);
#119=CYLINDRICAL_SURFACE('',#171,20.0);
#120=FACE_BOUND('',#172,.T.);
#121=FACE_BOUND('',#173,.T.);
#122=CONICAL_SURFACE('',#174,19.116025405,1.04719755151904);
#123=FACE_BOUND('',#175,.T.);
#124=FACE_OUTER_BOUND('',#176,.T.);
#125=PLANE('',#177);
#126=FACE_BOUND('',#178,.T.);
#127=FACE_BOUND('',#179,.T.);
#128=CYLINDRICAL_SURFACE('',#180,17.4);
#129=FACE_OUTER_BOUND('',#181,.T.);
#130=FACE_BOUND('',#182,.T.);
#131=PLANE('',#183);
#132=FACE_BOUND('',#184,.T.);
#133=FACE_BOUND('',#185,.T.);
#134=CONICAL_SURFACE('',#186,19.116025405,1.04719755151904);
#135=FACE_BOUND('',#187,.T.);
#136=FACE_BOUND('',#188,.T.);
#137=CYLINDRICAL_SURFACE('',#189,20.0);
#138=FACE_BOUND('',#190,.T.);
#139=FACE_OUTER_BOUND('',#191,.T.);
#140=PLANE('',#192);
#141=FACE_OUTER_BOUND('',#193,.T.);
#142=PLANE('',#194);
#143=FACE_BOUND('',#195,.T.);
#144=FACE_BOUND('',#196,.T.);
#145=CONICAL_SURFACE('',#197,14.6500000023492,0.0499583954615709);
#146=EDGE_LOOP('',(#198));
#147=EDGE_LOOP('',(#199));
#148=AXIS2_PLACEMENT_3D('',#200,#201,#202);
#149=EDGE_LOOP('',(#203));
#150=EDGE_LOOP('',(#204));
#151=AXIS2_PLACEMENT_3D('',#205,#206,#207);
#152=EDGE_LOOP('',(#208));
#153=EDGE_LOOP('',(#209));
#154=AXIS2_PLACEMENT_3D('',#210,#211,#212);
#155=EDGE_LOOP('',(#213));
#156=EDGE_LOOP('',(#214));
#157=AXIS2_PLACEMENT_3D('',#215,#216,#217);
#158=EDGE_LOOP('',(#218));
#159=AXIS2_PLACEMENT_3D('',#219,#220,#221);
#160=EDGE_LOOP('',(#222));
#161=EDGE_LOOP('',(#223));
#162=AXIS2_PLACEMENT_3D('',#224,#225,#226);
#163=EDGE_LOOP('',(#227));
#164=EDGE_LOOP('',(#228));
#165=AXIS2_PLACEMENT_3D('',#229,#230,#231);
#166=EDGE_LOOP('',(#232));
#167=EDGE_LOOP('',(#233));
#168=AXIS2_PLACEMENT_3D('',#234,#235,#236);
#169=EDGE_LOOP('',(#237));
#170=EDGE_LOOP('',(#238));
#171=AXIS2_PLACEMENT_3D('',#239,#240,#241);
#172=EDGE_LOOP('',(#242));
#173=EDGE_LOOP('',(#243));
#174=AXIS2_PLACEMENT_3D('',#244,#245,#246);
#175=EDGE_LOOP('',(#247));
#176=EDGE_LOOP('',(#248));
#177=AXIS2_PLACEMENT_3D('',#249,#250,#251);
#178=EDGE_LOOP('',(#252));
#179=EDGE_LOOP('',(#253));
#180=AXIS2_PLACEMENT_3D('',#254,#255,#256);
#181=EDGE_LOOP('',(#257));
#182=EDGE_LOOP('',(#258));
#183=AXIS2_PLACEMENT_3D('',#259,#260,#261);
#184=EDGE_LOOP('',(#262));
#185=EDGE_LOOP('',(#263));
#186=AXIS2_PLACEMENT_3D('',#264,#265,#266);
#187=EDGE_LOOP('',(#267));
#188=EDGE_LOOP('',(#268));
#189=AXIS2_PLACEMENT_3D('',#269,#270,#271);
#190=EDGE_LOOP('',(#272));
#191=EDGE_LOOP('',(#273));
#192=AXIS2_PLACEMENT_3D('',#274,#275,#276);
#193=EDGE_LOOP('',(#277));
#194=AXIS2_PLACEMENT_3D('',#278,#279,#280);
#195=EDGE_LOOP('',(#281));
#196=EDGE_LOOP('',(#282));
#197=AXIS2_PLACEMENT_3D('',#283,#284,#285);
#198=ORIENTED_EDGE('',*,*,#286,.F.);
#199=ORIENTED_EDGE('',*,*,#287,.T.);
#200=CARTESIAN_POINT('',(1.68388934882761E-015,14.35,-27.5));
#201=DIRECTION('',(6.12323399573677E-017,1.22464679914735E-016,-1.0));
#202=DIRECTION('',(-1.23259516440783E-032,1.0,1.22464679914735E-016));
#203=ORIENTED_EDGE('',*,*,#288,.F.);
#204=ORIENTED_EDGE('',*,*,#286,.T.);
#205=CARTESIAN_POINT('',(2.50901057622322E-015,5.01802115244643E-015,-40.97525226));
#206=DIRECTION('',(-6.12323399573677E-017,-1.22464679914735E-016,1.0));
#207=DIRECTION('',(-1.23259516440783E-032,1.0,1.22464679914735E-016));
#208=ORIENTED_EDGE('',*,*,#289,.F.);
#209=ORIENTED_EDGE('',*,*,#288,.T.);
#210=CARTESIAN_POINT('',(3.38157142061571E-015,6.76314284123141E-015,-55.22525226));
#211=DIRECTION('',(6.12323399573677E-017,1.22464679914735E-016,-1.0));
#212=DIRECTION('',(-1.23259516440783E-032,1.0,1.22464679914735E-016));
#213=ORIENTED_EDGE('',*,*,#290,.F.);
#214=ORIENTED_EDGE('',*,*,#289,.T.);
#215=CARTESIAN_POINT('',(3.70455656742074E-015,7.40911313484149E-015,-60.5));
#216=DIRECTION('',(-6.12323399573677E-017,-1.22464679914735E-016,1.0));
#217=DIRECTION('',(-1.23259516440783E-032,1.0,1.22464679914735E-016));
#218=ORIENTED_EDGE('',*,*,#290,.T.);
#219=CARTESIAN_POINT('',(3.9801020972289E-015,6.25000000000001,-65.0));
#220=DIRECTION('',(6.12323399573677E-017,1.22464679914735E-016,-1.0));
#221=DIRECTION('',(-1.23259516440783E-032,1.0,1.22464679914735E-016));
#222=ORIENTED_EDGE('',*,*,#287,.F.);
#223=ORIENTED_EDGE('',*,*,#291,.F.);
#224=CARTESIAN_POINT('',(1.45426807398748E-015,2.90853614797496E-015,-23.75));
#225=DIRECTION('',(-6.12323399573677E-017,-1.22464679914735E-016,1.0));
#226=DIRECTION('',(-1.23259516440783E-032,1.0,1.22464679914735E-016));
#227=ORIENTED_EDGE('',*,*,#292,.F.);
#228=ORIENTED_EDGE('',*,*,#293,.T.);
#229=CARTESIAN_POINT('',(-6.12323399573677E-017,-1.22464679914735E-016,1.0));
#230=DIRECTION('',(-6.12323399573677E-017,-1.22464679914735E-016,1.0));
#231=DIRECTION('',(-1.23259516440783E-032,1.0,1.22464679914735E-016));
#232=ORIENTED_EDGE('',*,*,#294,.F.);
#233=ORIENTED_EDGE('',*,*,#292,.T.);
#234=CARTESIAN_POINT('',(-2.16320451353574E-031,17.55,2.1492551325036E-015));
#235=DIRECTION('',(-6.12323399573677E-017,-1.22464679914735E-016,1.0));
#236=DIRECTION('',(1.23259516440783E-032,-1.0,-1.22464679914735E-016));
#237=ORIENTED_EDGE('',*,*,#295,.F.);
#238=ORIENTED_EDGE('',*,*,#294,.T.);
#239=CARTESIAN_POINT('',(4.27991830799566E-016,8.55983661599131E-016,-6.98963703));
#240=DIRECTION('',(-6.12323399573677E-017,-1.22464679914735E-016,1.0));
#241=DIRECTION('',(-1.23259516440783E-032,1.0,1.22464679914735E-016));
#242=ORIENTED_EDGE('',*,*,#296,.F.);
#243=ORIENTED_EDGE('',*,*,#295,.T.);
#244=CARTESIAN_POINT('',(8.87234380479823E-016,1.77446876095965E-015,-14.48963703));
#245=DIRECTION('',(-6.12323399573677E-017,-1.22464679914735E-016,1.0));
#246=DIRECTION('',(-1.23259516440783E-032,1.0,1.22464679914735E-016));
#247=ORIENTED_EDGE('',*,*,#297,.F.);
#248=ORIENTED_EDGE('',*,*,#296,.T.);
#249=CARTESIAN_POINT('',(9.18485099360515E-016,17.816025405,-15.0));
#250=DIRECTION('',(6.12323399573677E-017,1.22464679914735E-016,-1.0));
#251=DIRECTION('',(-1.23259516440783E-032,1.0,1.22464679914735E-016));
#252=ORIENTED_EDGE('',*,*,#298,.F.);
#253=ORIENTED_EDGE('',*,*,#297,.T.);
#254=CARTESIAN_POINT('',(9.79717439317883E-016,1.95943487863577E-015,-16.0));
#255=DIRECTION('',(-6.12323399573677E-017,-1.22464679914735E-016,1.0));
#256=DIRECTION('',(-1.23259516440783E-032,1.0,1.22464679914735E-016));
#257=ORIENTED_EDGE('',*,*,#299,.F.);
#258=ORIENTED_EDGE('',*,*,#298,.T.);
#259=CARTESIAN_POINT('',(1.04094977927525E-015,17.816025405,-17.0));
#260=DIRECTION('',(-6.12323399573677E-017,-1.22464679914735E-016,1.0));
#261=DIRECTION('',(1.23259516440783E-032,-1.0,-1.22464679914735E-016));
#262=ORIENTED_EDGE('',*,*,#300,.F.);
#263=ORIENTED_EDGE('',*,*,#299,.T.);
#264=CARTESIAN_POINT('',(1.07220049815594E-015,2.14440099631188E-015,-17.51036297));
#265=DIRECTION('',(6.12323399573677E-017,1.22464679914735E-016,-1.0));
#266=DIRECTION('',(-1.23259516440783E-032,1.0,1.22464679914735E-016));
#267=ORIENTED_EDGE('',*,*,#301,.F.);
#268=ORIENTED_EDGE('',*,*,#300,.T.);
#269=CARTESIAN_POINT('',(1.16404900809199E-015,2.32809801618399E-015,-19.01036297));
#270=DIRECTION('',(-6.12323399573677E-017,-1.22464679914735E-016,1.0));
#271=DIRECTION('',(-1.23259516440783E-032,1.0,1.22464679914735E-016));
#272=ORIENTED_EDGE('',*,*,#291,.T.);
#273=ORIENTED_EDGE('',*,*,#301,.T.);
#274=CARTESIAN_POINT('',(1.22464679914735E-015,8.4,-20.0));
#275=DIRECTION('',(6.12323399573677E-017,3.33935732224289E-016,-1.0));
#276=DIRECTION('',(-2.52748190102392E-032,1.0,3.33935732224289E-016));
#277=ORIENTED_EDGE('',*,*,#302,.F.);
#278=CARTESIAN_POINT('',(-1.22464679914735E-015,7.10000000234919,20.0));
#279=DIRECTION('',(-6.12323399573677E-017,-1.22464679914735E-016,1.0));
#280=DIRECTION('',(1.23259516440783E-032,-1.0,-1.22464679914735E-016));
#281=ORIENTED_EDGE('',*,*,#293,.F.);
#282=ORIENTED_EDGE('',*,*,#302,.T.);
#283=CARTESIAN_POINT('',(-6.73555739531044E-016,-1.34711147906209E-015,11.0));
#284=DIRECTION('',(6.12323399573676E-017,1.22464679914735E-016,-1.0));
#285=DIRECTION('',(-1.23259516440783E-032,1.0,1.22464679914735E-016));
#286=EDGE_CURVE('',#303,#303,#304,.T.);
#287=EDGE_CURVE('',#305,#305,#306,.T.);
#288=EDGE_CURVE('',#307,#307,#308,.T.);
#289=EDGE_CURVE('',#309,#309,#310,.T.);
#290=EDGE_CURVE('',#311,#311,#312,.T.);
#291=EDGE_CURVE('',#313,#313,#314,.T.);
#292=EDGE_CURVE('',#315,#315,#316,.T.);
#293=EDGE_CURVE('',#317,#317,#318,.T.);
#294=EDGE_CURVE('',#319,#319,#320,.T.);
#295=EDGE_CURVE('',#321,#321,#322,.T.);
#296=EDGE_CURVE('',#323,#323,#324,.T.);
#297=EDGE_CURVE('',#325,#325,#326,.T.);
#298=EDGE_CURVE('',#327,#327,#328,.T.);
#299=EDGE_CURVE('',#329,#329,#330,.T.);
#300=EDGE_CURVE('',#331,#331,#332,.T.);
#301=EDGE_CURVE('',#333,#333,#334,.T.);
#302=EDGE_CURVE('',#335,#335,#336,.T.);
#303=VERTEX_POINT('',#337);
#304=CIRCLE('',#338,11.9);
#305=VERTEX_POINT('',#339);
#306=CIRCLE('',#340,16.8);
#307=VERTEX_POINT('',#341);
#308=CIRCLE('',#342,11.9);
#309=VERTEX_POINT('',#343);
#310=CIRCLE('',#344,12.5);
#311=VERTEX_POINT('',#345);
#312=CIRCLE('',#346,12.5);
#313=VERTEX_POINT('',#347);
#314=CIRCLE('',#348,16.8);
#315=VERTEX_POINT('',#349);
#316=CIRCLE('',#350,15.1);
#317=VERTEX_POINT('',#351);
#318=CIRCLE('',#352,15.1);
#319=VERTEX_POINT('',#353);
#320=CIRCLE('',#354,20.0);
#321=VERTEX_POINT('',#355);
#322=CIRCLE('',#356,20.0);
#323=VERTEX_POINT('',#357);
#324=CIRCLE('',#358,18.23205081);
#325=VERTEX_POINT('',#359);
#326=CIRCLE('',#360,17.4);
#327=VERTEX_POINT('',#361);
#328=CIRCLE('',#362,17.4);
#329=VERTEX_POINT('',#363);
#330=CIRCLE('',#364,18.23205081);
#331=VERTEX_POINT('',#365);
#332=CIRCLE('',#366,20.0);
#333=VERTEX_POINT('',#367);
#334=CIRCLE('',#368,20.0);
#335=VERTEX_POINT('',#369);
#336=CIRCLE('',#370,14.2000000046984);
#337=CARTESIAN_POINT('',(1.68388934882761E-015,11.9,-27.5));
#338=AXIS2_PLACEMENT_3D('',#371,#372,#373);
#339=CARTESIAN_POINT('',(1.68388934882761E-015,16.8,-27.5));
#340=AXIS2_PLACEMENT_3D('',#374,#375,#376);
#341=CARTESIAN_POINT('',(3.33413180361882E-015,11.9,-54.45050452));
#342=AXIS2_PLACEMENT_3D('',#377,#378,#379);
#343=CARTESIAN_POINT('',(3.42901103761259E-015,12.5,-56.0));
#344=AXIS2_PLACEMENT_3D('',#380,#381,#382);
#345=CARTESIAN_POINT('',(3.9801020972289E-015,12.5,-65.0));
#346=AXIS2_PLACEMENT_3D('',#383,#384,#385);
#347=CARTESIAN_POINT('',(1.22464679914735E-015,16.8,-20.0));
#348=AXIS2_PLACEMENT_3D('',#386,#387,#388);
#349=CARTESIAN_POINT('',(-1.86121869825582E-031,15.1,1.8492166667125E-015));
#350=AXIS2_PLACEMENT_3D('',#389,#390,#391);
#351=CARTESIAN_POINT('',(-1.22464679914736E-016,15.1,2.0));
#352=AXIS2_PLACEMENT_3D('',#392,#393,#394);
#353=CARTESIAN_POINT('',(-2.46519032881566E-031,20.0,2.44929359829471E-015));
#354=AXIS2_PLACEMENT_3D('',#395,#396,#397);
#355=CARTESIAN_POINT('',(8.55983661599131E-016,20.0,-13.97927406));
#356=AXIS2_PLACEMENT_3D('',#398,#399,#400);
#357=CARTESIAN_POINT('',(9.18485099360515E-016,18.23205081,-15.0));
#358=AXIS2_PLACEMENT_3D('',#401,#402,#403);
#359=CARTESIAN_POINT('',(9.18485099360515E-016,17.4,-15.0));
#360=AXIS2_PLACEMENT_3D('',#404,#405,#406);
#361=CARTESIAN_POINT('',(1.04094977927525E-015,17.4,-17.0));
#362=AXIS2_PLACEMENT_3D('',#407,#408,#409);
#363=CARTESIAN_POINT('',(1.04094977927525E-015,18.23205081,-17.0));
#364=AXIS2_PLACEMENT_3D('',#410,#411,#412);
#365=CARTESIAN_POINT('',(1.10345121703663E-015,20.0,-18.02072594));
#366=AXIS2_PLACEMENT_3D('',#413,#414,#415);
#367=CARTESIAN_POINT('',(1.22464679914735E-015,20.0,-20.0));
#368=AXIS2_PLACEMENT_3D('',#416,#417,#418);
#369=CARTESIAN_POINT('',(-1.22464679914735E-015,14.2000000046984,20.0));
#370=AXIS2_PLACEMENT_3D('',#419,#420,#421);
#371=CARTESIAN_POINT('',(1.68388934882761E-015,3.36777869765522E-015,-27.5));
#372=DIRECTION('',(6.12323399573677E-017,1.22464679914735E-016,-1.0));
#373=DIRECTION('',(-1.23259516440783E-032,1.0,1.22464679914735E-016));
#374=CARTESIAN_POINT('',(1.68388934882761E-015,3.36777869765522E-015,-27.5));
#375=DIRECTION('',(6.12323399573677E-017,1.22464679914735E-016,-1.0));
#376=DIRECTION('',(-1.23259516440783E-032,1.0,1.22464679914735E-016));
#377=CARTESIAN_POINT('',(3.33413180361882E-015,6.66826360723765E-015,-54.45050452));
#378=DIRECTION('',(6.12323399573677E-017,1.22464679914735E-016,-1.0));
#379=DIRECTION('',(-1.23259516440783E-032,1.0,1.22464679914735E-016));
#380=CARTESIAN_POINT('',(3.42901103761259E-015,6.85802207522518E-015,-56.0));
#381=DIRECTION('',(6.12323399573677E-017,1.22464679914735E-016,-1.0));
#382=DIRECTION('',(-1.23259516440783E-032,1.0,1.22464679914735E-016));
#383=CARTESIAN_POINT('',(3.9801020972289E-015,7.96020419445779E-015,-65.0));
#384=DIRECTION('',(6.12323399573677E-017,1.22464679914735E-016,-1.0));
#385=DIRECTION('',(-1.23259516440783E-032,1.0,1.22464679914735E-016));
#386=CARTESIAN_POINT('',(1.22464679914735E-015,2.44929359829471E-015,-20.0));
#387=DIRECTION('',(-6.12323399573677E-017,-3.33935732224289E-016,1.0));
#388=DIRECTION('',(-2.52748190102392E-032,1.0,3.33935732224289E-016));
#389=CARTESIAN_POINT('',(0.0,0.0,0.0));
#390=DIRECTION('',(6.12323399573677E-017,1.22464679914735E-016,-1.0));
#391=DIRECTION('',(-1.23259516440783E-032,1.0,1.22464679914735E-016));
#392=CARTESIAN_POINT('',(-1.22464679914735E-016,-2.44929359829471E-016,2.0));
#393=DIRECTION('',(6.12323399573677E-017,1.22464679914735E-016,-1.0));
#394=DIRECTION('',(-1.23259516440783E-032,1.0,1.22464679914735E-016));
#395=CARTESIAN_POINT('',(0.0,0.0,0.0));
#396=DIRECTION('',(6.12323399573677E-017,1.22464679914735E-016,-1.0));
#397=DIRECTION('',(-1.23259516440783E-032,1.0,1.22464679914735E-016));
#398=CARTESIAN_POINT('',(8.55983661599131E-016,1.71196732319826E-015,-13.97927406));
#399=DIRECTION('',(6.12323399573677E-017,1.22464679914735E-016,-1.0));
#400=DIRECTION('',(-1.23259516440783E-032,1.0,1.22464679914735E-016));
#401=CARTESIAN_POINT('',(9.18485099360515E-016,1.83697019872103E-015,-15.0));
#402=DIRECTION('',(6.12323399573677E-017,1.22464679914735E-016,-1.0));
#403=DIRECTION('',(-1.23259516440783E-032,1.0,1.22464679914735E-016));
#404=CARTESIAN_POINT('',(9.18485099360515E-016,1.83697019872103E-015,-15.0));
#405=DIRECTION('',(6.12323399573677E-017,1.22464679914735E-016,-1.0));
#406=DIRECTION('',(-1.23259516440783E-032,1.0,1.22464679914735E-016));
#407=CARTESIAN_POINT('',(1.04094977927525E-015,2.0818995585505E-015,-17.0));
#408=DIRECTION('',(6.12323399573677E-017,1.22464679914735E-016,-1.0));
#409=DIRECTION('',(-1.23259516440783E-032,1.0,1.22464679914735E-016));
#410=CARTESIAN_POINT('',(1.04094977927525E-015,2.0818995585505E-015,-17.0));
#411=DIRECTION('',(6.12323399573677E-017,1.22464679914735E-016,-1.0));
#412=DIRECTION('',(-1.23259516440783E-032,1.0,1.22464679914735E-016));
#413=CARTESIAN_POINT('',(1.10345121703663E-015,2.20690243407327E-015,-18.02072594));
#414=DIRECTION('',(6.12323399573677E-017,1.22464679914735E-016,-1.0));
#415=DIRECTION('',(-1.23259516440783E-032,1.0,1.22464679914735E-016));
#416=CARTESIAN_POINT('',(1.22464679914735E-015,2.44929359829471E-015,-20.0));
#417=DIRECTION('',(6.12323399573677E-017,1.22464679914735E-016,-1.0));
#418=DIRECTION('',(-1.23259516440783E-032,1.0,1.22464679914735E-016));
#419=CARTESIAN_POINT('',(-1.22464679914735E-015,-2.44929359829471E-015,20.0));
#420=DIRECTION('',(6.12323399573677E-017,1.22464679914735E-016,-1.0));
#421=DIRECTION('',(-1.23259516440783E-032,1.0,1.22464679914735E-016));
ENDSEC;
END-ISO-10303-21;
