ISO-10303-21;
HEADER;
FILE_DESCRIPTION((''),'1');
FILE_NAME('T:/00_BIG-HP\X2\FF71FF6FFF8CFF9F\X0\/\X2\670065B0\X0\2025_HP\X2\FF71FF6FFF8CFF9F4E885B9AFF83FF9EFF70FF80\X0\/01_DXF\X2\FF83FF9EFF70FF80\X0\/LINK\X2\7528FF83FF9EFF70FF80\X0\/CK\X2\FF8DFF6FFF84FF9E30FBFF71FF78FF7EFF7BFF98\X0\/10_\X2\4ED54E0A305275284E38FF8AFF9EFF72FF84FF7CFF98FF70FF7DFF9E\X0\/09_\X2\4E38FF8AFF9EFF72FF847528FF7DFF84FF9AFF70FF84FF7AFF9AFF6FFF84\X0\/EC1614.stp','2024-09-10T04:14:12',(''),(''),'Spatial Interop R21 SP3','Kubotek KeyCreator 2011 V10.0.2 (22737)',' ');
FILE_SCHEMA(('automotive_design'));
ENDSEC;
DATA;
#1=MECHANICAL_DESIGN_GEOMETRIC_PRESENTATION_REPRESENTATION(' ',(#10,#11,#12,#13,#14,#15,#16,#17,#18,#19,#20,#21,#22,#23,#24),#6);
#2=PRODUCT_DEFINITION_CONTEXT('',#25,'design');
#3=APPLICATION_PROTOCOL_DEFINITION('INTERNATIONAL STANDARD','automotive_design',1994,#25);
#4=PRODUCT_CATEGORY_RELATIONSHIP('NONE','NONE',#26,#27);
#5=SHAPE_DEFINITION_REPRESENTATION(#28,#29);
#6= (GEOMETRIC_REPRESENTATION_CONTEXT(3)GLOBAL_UNCERTAINTY_ASSIGNED_CONTEXT((#32))GLOBAL_UNIT_ASSIGNED_CONTEXT((#34,#35,#36))REPRESENTATION_CONTEXT('NONE','WORKSPACE'));
#10=STYLED_ITEM('',(#38,#39),#40);
#11=STYLED_ITEM('',(#41,#42),#43);
#12=STYLED_ITEM('',(#44,#45),#46);
#13=STYLED_ITEM('',(#47,#48),#49);
#14=STYLED_ITEM('',(#50,#51),#52);
#15=STYLED_ITEM('',(#53),#54);
#16=STYLED_ITEM('',(#55),#56);
#17=STYLED_ITEM('',(#57,#58),#59);
#18=STYLED_ITEM('',(#60),#61);
#19=STYLED_ITEM('',(#62),#63);
#20=STYLED_ITEM('',(#64),#65);
#21=STYLED_ITEM('',(#66,#67),#68);
#22=STYLED_ITEM('',(#69,#70),#71);
#23=STYLED_ITEM('',(#72),#73);
#24=STYLED_ITEM('',(#74),#75);
#25=APPLICATION_CONTEXT(' ');
#26=PRODUCT_CATEGORY('part','NONE');
#27=PRODUCT_RELATED_PRODUCT_CATEGORY('detail',' ',(#76));
#28=PRODUCT_DEFINITION_SHAPE('NONE','NONE',#77);
#29=ADVANCED_BREP_SHAPE_REPRESENTATION('240[2]',(#49,#78),#6);
#32=UNCERTAINTY_MEASURE_WITH_UNIT(LENGTH_MEASURE(1.0E-006),#34,'','');
#34= (CONVERSION_BASED_UNIT('MILLIMETRE',#81)LENGTH_UNIT()NAMED_UNIT(#84));
#35= (NAMED_UNIT(#86)PLANE_ANGLE_UNIT()SI_UNIT($,.RADIAN.));
#36= (NAMED_UNIT(#86)SOLID_ANGLE_UNIT()SI_UNIT($,.STERADIAN.));
#38=PRESENTATION_STYLE_ASSIGNMENT((#92));
#39=PRESENTATION_STYLE_ASSIGNMENT((#93));
#40=ADVANCED_FACE('240[2]',(#94,#95),#96,.T.);
#41=PRESENTATION_STYLE_ASSIGNMENT((#97));
#42=PRESENTATION_STYLE_ASSIGNMENT((#98));
#43=ADVANCED_FACE('240[2]',(#99,#100),#101,.T.);
#44=PRESENTATION_STYLE_ASSIGNMENT((#102));
#45=PRESENTATION_STYLE_ASSIGNMENT((#103));
#46=ADVANCED_FACE('240[2]',(#104,#105),#106,.T.);
#47=PRESENTATION_STYLE_ASSIGNMENT((#107));
#48=PRESENTATION_STYLE_ASSIGNMENT((#108));
#49=MANIFOLD_SOLID_BREP('240[2]',#109);
#50=PRESENTATION_STYLE_ASSIGNMENT((#110));
#51=PRESENTATION_STYLE_ASSIGNMENT((#111));
#52=ADVANCED_FACE('240[2]',(#112,#113),#114,.F.);
#53=PRESENTATION_STYLE_ASSIGNMENT((#115));
#54=EDGE_CURVE('240[2]',#116,#116,#117,.T.);
#55=PRESENTATION_STYLE_ASSIGNMENT((#118));
#56=EDGE_CURVE('240[2]',#119,#119,#120,.T.);
#57=PRESENTATION_STYLE_ASSIGNMENT((#121));
#58=PRESENTATION_STYLE_ASSIGNMENT((#122));
#59=ADVANCED_FACE('240[2]',(#123,#124),#125,.T.);
#60=PRESENTATION_STYLE_ASSIGNMENT((#126));
#61=EDGE_CURVE('240[2]',#127,#127,#128,.T.);
#62=PRESENTATION_STYLE_ASSIGNMENT((#129));
#63=EDGE_CURVE('240[2]',#130,#130,#131,.T.);
#64=PRESENTATION_STYLE_ASSIGNMENT((#132));
#65=EDGE_CURVE('240[2]',#133,#133,#134,.T.);
#66=PRESENTATION_STYLE_ASSIGNMENT((#135));
#67=PRESENTATION_STYLE_ASSIGNMENT((#136));
#68=ADVANCED_FACE('240[2]',(#137,#138),#139,.T.);
#69=PRESENTATION_STYLE_ASSIGNMENT((#140));
#70=PRESENTATION_STYLE_ASSIGNMENT((#141));
#71=ADVANCED_FACE('240[2]',(#142,#143),#144,.T.);
#72=PRESENTATION_STYLE_ASSIGNMENT((#145));
#73=EDGE_CURVE('240[2]',#146,#146,#147,.T.);
#74=PRESENTATION_STYLE_ASSIGNMENT((#148));
#75=EDGE_CURVE('240[2]',#149,#149,#150,.T.);
#76=PRODUCT('240[2]','240[2]','PART-240[2]-DESC',(#151));
#77=PRODUCT_DEFINITION('NONE','NONE',#152,#2);
#78=AXIS2_PLACEMENT_3D('',#153,#154,#155);
#81=LENGTH_MEASURE_WITH_UNIT(LENGTH_MEASURE(1.0),#156);
#84=DIMENSIONAL_EXPONENTS(1.0,0.0,0.0,0.0,0.0,0.0,0.0);
#86=DIMENSIONAL_EXPONENTS(0.0,0.0,0.0,0.0,0.0,0.0,0.0);
#92=SURFACE_STYLE_USAGE(.BOTH.,#157);
#93=CURVE_STYLE('',#158,POSITIVE_LENGTH_MEASURE(1000.0),#159);
#94=FACE_BOUND('',#160,.T.);
#95=FACE_BOUND('',#161,.T.);
#96=TOROIDAL_SURFACE('',#162,7.6875,0.8125);
#97=SURFACE_STYLE_USAGE(.BOTH.,#163);
#98=CURVE_STYLE('',#164,POSITIVE_LENGTH_MEASURE(1000.0),#165);
#99=FACE_BOUND('',#166,.T.);
#100=FACE_BOUND('',#167,.T.);
#101=CYLINDRICAL_SURFACE('',#168,8.0);
#102=SURFACE_STYLE_USAGE(.BOTH.,#169);
#103=CURVE_STYLE('',#170,POSITIVE_LENGTH_MEASURE(1000.0),#171);
#104=FACE_BOUND('',#172,.T.);
#105=FACE_BOUND('',#173,.T.);
#106=CYLINDRICAL_SURFACE('',#174,8.5);
#107=SURFACE_STYLE_USAGE(.BOTH.,#175);
#108=CURVE_STYLE('',#176,POSITIVE_LENGTH_MEASURE(1000.0),#177);
#109=CLOSED_SHELL('',(#68,#43,#40,#71,#46,#59,#52));
#110=SURFACE_STYLE_USAGE(.BOTH.,#178);
#111=CURVE_STYLE('',#179,POSITIVE_LENGTH_MEASURE(1000.0),#180);
#112=FACE_BOUND('',#181,.T.);
#113=FACE_BOUND('',#182,.T.);
#114=CYLINDRICAL_SURFACE('',#183,7.0);
#115=CURVE_STYLE('',#184,POSITIVE_LENGTH_MEASURE(1000.0),#185);
#116=VERTEX_POINT('',#186);
#117=CIRCLE('',#187,7.0);
#118=CURVE_STYLE('',#188,POSITIVE_LENGTH_MEASURE(1000.0),#189);
#119=VERTEX_POINT('',#190);
#120=CIRCLE('',#191,8.0);
#121=SURFACE_STYLE_USAGE(.BOTH.,#192);
#122=CURVE_STYLE('',#193,POSITIVE_LENGTH_MEASURE(1000.0),#194);
#123=FACE_BOUND('',#195,.T.);
#124=FACE_OUTER_BOUND('',#196,.T.);
#125=PLANE('',#197);
#126=CURVE_STYLE('',#198,POSITIVE_LENGTH_MEASURE(1000.0),#199);
#127=VERTEX_POINT('',#200);
#128=CIRCLE('',#201,8.0);
#129=CURVE_STYLE('',#202,POSITIVE_LENGTH_MEASURE(1000.0),#203);
#130=VERTEX_POINT('',#204);
#131=CIRCLE('',#205,8.5);
#132=CURVE_STYLE('',#206,POSITIVE_LENGTH_MEASURE(1000.0),#207);
#133=VERTEX_POINT('',#208);
#134=CIRCLE('',#209,7.0);
#135=SURFACE_STYLE_USAGE(.BOTH.,#210);
#136=CURVE_STYLE('',#211,POSITIVE_LENGTH_MEASURE(1000.0),#212);
#137=FACE_OUTER_BOUND('',#213,.T.);
#138=FACE_BOUND('',#214,.T.);
#139=PLANE('',#215);
#140=SURFACE_STYLE_USAGE(.BOTH.,#216);
#141=CURVE_STYLE('',#217,POSITIVE_LENGTH_MEASURE(1000.0),#218);
#142=FACE_OUTER_BOUND('',#219,.T.);
#143=FACE_BOUND('',#220,.T.);
#144=PLANE('',#221);
#145=CURVE_STYLE('',#222,POSITIVE_LENGTH_MEASURE(1000.0),#223);
#146=VERTEX_POINT('',#224);
#147=CIRCLE('',#225,8.5);
#148=CURVE_STYLE('',#226,POSITIVE_LENGTH_MEASURE(1000.0),#227);
#149=VERTEX_POINT('',#228);
#150=CIRCLE('',#229,8.0);
#151=PRODUCT_CONTEXT('',#25,'mechanical');
#152=PRODUCT_DEFINITION_FORMATION_WITH_SPECIFIED_SOURCE(' ','NONE',#76,.NOT_KNOWN.);
#153=CARTESIAN_POINT('',(0.0,0.0,0.0));
#154=DIRECTION('',(0.0,0.0,1.0));
#155=DIRECTION('',(1.0,0.0,0.0));
#156= (NAMED_UNIT(#84)LENGTH_UNIT()SI_UNIT(.MILLI.,.METRE.));
#157=SURFACE_SIDE_STYLE('',(#231));
#158=DRAUGHTING_PRE_DEFINED_CURVE_FONT('continuous');
#159=COLOUR_RGB('',0.501960813999176,0.501960813999176,0.501960813999176);
#160=EDGE_LOOP('',(#232));
#161=EDGE_LOOP('',(#233));
#162=AXIS2_PLACEMENT_3D('',#234,#235,#236);
#163=SURFACE_SIDE_STYLE('',(#237));
#164=DRAUGHTING_PRE_DEFINED_CURVE_FONT('continuous');
#165=COLOUR_RGB('',0.501960813999176,0.501960813999176,0.501960813999176);
#166=EDGE_LOOP('',(#238));
#167=EDGE_LOOP('',(#239));
#168=AXIS2_PLACEMENT_3D('',#240,#241,#242);
#169=SURFACE_SIDE_STYLE('',(#243));
#170=DRAUGHTING_PRE_DEFINED_CURVE_FONT('continuous');
#171=COLOUR_RGB('',0.501960813999176,0.501960813999176,0.501960813999176);
#172=EDGE_LOOP('',(#244));
#173=EDGE_LOOP('',(#245));
#174=AXIS2_PLACEMENT_3D('',#246,#247,#248);
#175=SURFACE_SIDE_STYLE('',(#249));
#176=DRAUGHTING_PRE_DEFINED_CURVE_FONT('continuous');
#177=COLOUR_RGB('',0.501960813999176,0.501960813999176,0.501960813999176);
#178=SURFACE_SIDE_STYLE('',(#250));
#179=DRAUGHTING_PRE_DEFINED_CURVE_FONT('continuous');
#180=COLOUR_RGB('',0.501960813999176,0.501960813999176,0.501960813999176);
#181=EDGE_LOOP('',(#251));
#182=EDGE_LOOP('',(#252));
#183=AXIS2_PLACEMENT_3D('',#253,#254,#255);
#184=DRAUGHTING_PRE_DEFINED_CURVE_FONT('continuous');
#185=COLOUR_RGB('',0.501960813999176,0.501960813999176,0.501960813999176);
#186=CARTESIAN_POINT('',(9.18485099360514E-017,7.0,-1.5));
#187=AXIS2_PLACEMENT_3D('',#256,#257,#258);
#188=DRAUGHTING_PRE_DEFINED_CURVE_FONT('continuous');
#189=COLOUR_RGB('',0.501960813999176,0.501960813999176,0.501960813999176);
#190=CARTESIAN_POINT('',(-9.18485099360516E-017,8.0,1.5));
#191=AXIS2_PLACEMENT_3D('',#259,#260,#261);
#192=SURFACE_SIDE_STYLE('',(#262));
#193=DRAUGHTING_PRE_DEFINED_CURVE_FONT('continuous');
#194=COLOUR_RGB('',0.501960813999176,0.501960813999176,0.501960813999176);
#195=EDGE_LOOP('',(#263));
#196=EDGE_LOOP('',(#264));
#197=AXIS2_PLACEMENT_3D('',#265,#266,#267);
#198=DRAUGHTING_PRE_DEFINED_CURVE_FONT('continuous');
#199=COLOUR_RGB('',0.501960813999176,0.501960813999176,0.501960813999176);
#200=CARTESIAN_POINT('',(-9.86076131526265E-032,8.0,9.79717439317882E-016));
#201=AXIS2_PLACEMENT_3D('',#268,#269,#270);
#202=DRAUGHTING_PRE_DEFINED_CURVE_FONT('continuous');
#203=COLOUR_RGB('',0.501960813999176,0.501960813999176,0.501960813999176);
#204=CARTESIAN_POINT('',(-1.04770588974666E-031,8.5,1.04094977927525E-015));
#205=AXIS2_PLACEMENT_3D('',#271,#272,#273);
#206=DRAUGHTING_PRE_DEFINED_CURVE_FONT('continuous');
#207=COLOUR_RGB('',0.501960813999176,0.501960813999176,0.501960813999176);
#208=CARTESIAN_POINT('',(-2.2655965784226E-015,7.0,37.0));
#209=AXIS2_PLACEMENT_3D('',#274,#275,#276);
#210=SURFACE_SIDE_STYLE('',(#277));
#211=DRAUGHTING_PRE_DEFINED_CURVE_FONT('continuous');
#212=COLOUR_RGB('',0.501960813999176,0.501960813999176,0.501960813999176);
#213=EDGE_LOOP('',(#278));
#214=EDGE_LOOP('',(#279));
#215=AXIS2_PLACEMENT_3D('',#280,#281,#282);
#216=SURFACE_SIDE_STYLE('',(#283));
#217=DRAUGHTING_PRE_DEFINED_CURVE_FONT('continuous');
#218=COLOUR_RGB('',0.501960813999176,0.501960813999176,0.501960813999176);
#219=EDGE_LOOP('',(#284));
#220=EDGE_LOOP('',(#285));
#221=AXIS2_PLACEMENT_3D('',#286,#287,#288);
#222=DRAUGHTING_PRE_DEFINED_CURVE_FONT('continuous');
#223=COLOUR_RGB('',0.501960813999176,0.501960813999176,0.501960813999176);
#224=CARTESIAN_POINT('',(9.18485099360514E-017,8.5,-1.5));
#225=AXIS2_PLACEMENT_3D('',#289,#290,#291);
#226=DRAUGHTING_PRE_DEFINED_CURVE_FONT('continuous');
#227=COLOUR_RGB('',0.501960813999176,0.501960813999176,0.501960813999176);
#228=CARTESIAN_POINT('',(-2.2655965784226E-015,8.0,37.0));
#229=AXIS2_PLACEMENT_3D('',#292,#293,#294);
#231=SURFACE_STYLE_FILL_AREA(#295);
#232=ORIENTED_EDGE('',*,*,#61,.F.);
#233=ORIENTED_EDGE('',*,*,#56,.T.);
#234=CARTESIAN_POINT('',(-4.59242549680257E-017,-9.18485099360515E-017,0.75));
#235=DIRECTION('',(6.12323399573677E-017,1.22464679914735E-016,-1.0));
#236=DIRECTION('',(-1.0,-4.82715273076902E-033,-6.12323399573677E-017));
#237=SURFACE_STYLE_FILL_AREA(#296);
#238=ORIENTED_EDGE('',*,*,#56,.F.);
#239=ORIENTED_EDGE('',*,*,#75,.T.);
#240=CARTESIAN_POINT('',(-1.17872254417933E-015,-2.35744508835865E-015,19.25));
#241=DIRECTION('',(6.12323399573677E-017,1.22464679914735E-016,-1.0));
#242=DIRECTION('',(-1.23259516440783E-032,1.0,1.22464679914735E-016));
#243=SURFACE_STYLE_FILL_AREA(#297);
#244=ORIENTED_EDGE('',*,*,#73,.F.);
#245=ORIENTED_EDGE('',*,*,#63,.T.);
#246=CARTESIAN_POINT('',(4.59242549680257E-017,9.18485099360515E-017,-0.75));
#247=DIRECTION('',(6.12323399573676E-017,1.22464679914735E-016,-1.0));
#248=DIRECTION('',(-1.23259516440783E-032,1.0,1.22464679914735E-016));
#249=SURFACE_STYLE_FILL_AREA(#298);
#250=SURFACE_STYLE_FILL_AREA(#299);
#251=ORIENTED_EDGE('',*,*,#65,.F.);
#252=ORIENTED_EDGE('',*,*,#54,.T.);
#253=CARTESIAN_POINT('',(-1.08687403424328E-015,-2.17374806848655E-015,17.75));
#254=DIRECTION('',(6.12323399573677E-017,1.22464679914735E-016,-1.0));
#255=DIRECTION('',(-1.23259516440783E-032,1.0,1.22464679914735E-016));
#256=CARTESIAN_POINT('',(9.18485099360515E-017,1.83697019872103E-016,-1.5));
#257=DIRECTION('',(6.12323399573677E-017,1.22464679914735E-016,-1.0));
#258=DIRECTION('',(-1.23259516440783E-032,1.0,1.22464679914735E-016));
#259=CARTESIAN_POINT('',(-9.18485099360515E-017,-1.83697019872103E-016,1.5));
#260=DIRECTION('',(6.12323399573677E-017,1.22464679914735E-016,-1.0));
#261=DIRECTION('',(-1.23259516440783E-032,1.0,1.22464679914735E-016));
#262=SURFACE_STYLE_FILL_AREA(#300);
#263=ORIENTED_EDGE('',*,*,#54,.F.);
#264=ORIENTED_EDGE('',*,*,#73,.T.);
#265=CARTESIAN_POINT('',(9.18485099360514E-017,7.75,-1.5));
#266=DIRECTION('',(6.12323399573677E-017,1.22464679914735E-016,-1.0));
#267=DIRECTION('',(-1.23259516440783E-032,1.0,1.22464679914735E-016));
#268=CARTESIAN_POINT('',(0.0,0.0,0.0));
#269=DIRECTION('',(6.12323399573677E-017,1.22464679914735E-016,-1.0));
#270=DIRECTION('',(-1.23259516440783E-032,1.0,1.22464679914735E-016));
#271=CARTESIAN_POINT('',(0.0,0.0,0.0));
#272=DIRECTION('',(6.12323399573676E-017,1.22464679914735E-016,-1.0));
#273=DIRECTION('',(-1.23259516440783E-032,1.0,1.22464679914735E-016));
#274=CARTESIAN_POINT('',(-2.2655965784226E-015,-4.53119315684521E-015,37.0));
#275=DIRECTION('',(6.12323399573677E-017,1.22464679914735E-016,-1.0));
#276=DIRECTION('',(-1.23259516440783E-032,1.0,1.22464679914735E-016));
#277=SURFACE_STYLE_FILL_AREA(#301);
#278=ORIENTED_EDGE('',*,*,#75,.F.);
#279=ORIENTED_EDGE('',*,*,#65,.T.);
#280=CARTESIAN_POINT('',(-2.2655965784226E-015,7.5,37.0));
#281=DIRECTION('',(-6.12323399573677E-017,-1.22464679914735E-016,1.0));
#282=DIRECTION('',(1.23259516440783E-032,-1.0,-1.22464679914735E-016));
#283=SURFACE_STYLE_FILL_AREA(#302);
#284=ORIENTED_EDGE('',*,*,#63,.F.);
#285=ORIENTED_EDGE('',*,*,#61,.T.);
#286=CARTESIAN_POINT('',(-1.01689101063646E-031,8.25,1.01033360929657E-015));
#287=DIRECTION('',(-6.12323399573677E-017,-1.22464679914735E-016,1.0));
#288=DIRECTION('',(1.23259516440783E-032,-1.0,-1.22464679914735E-016));
#289=CARTESIAN_POINT('',(9.18485099360515E-017,1.83697019872103E-016,-1.5));
#290=DIRECTION('',(6.12323399573676E-017,1.22464679914735E-016,-1.0));
#291=DIRECTION('',(-1.23259516440783E-032,1.0,1.22464679914735E-016));
#292=CARTESIAN_POINT('',(-2.2655965784226E-015,-4.53119315684521E-015,37.0));
#293=DIRECTION('',(6.12323399573677E-017,1.22464679914735E-016,-1.0));
#294=DIRECTION('',(-1.23259516440783E-032,1.0,1.22464679914735E-016));
#295=FILL_AREA_STYLE('',(#303));
#296=FILL_AREA_STYLE('',(#304));
#297=FILL_AREA_STYLE('',(#305));
#298=FILL_AREA_STYLE('',(#306));
#299=FILL_AREA_STYLE('',(#307));
#300=FILL_AREA_STYLE('',(#308));
#301=FILL_AREA_STYLE('',(#309));
#302=FILL_AREA_STYLE('',(#310));
#303=FILL_AREA_STYLE_COLOUR('',#311);
#304=FILL_AREA_STYLE_COLOUR('',#312);
#305=FILL_AREA_STYLE_COLOUR('',#313);
#306=FILL_AREA_STYLE_COLOUR('',#314);
#307=FILL_AREA_STYLE_COLOUR('',#315);
#308=FILL_AREA_STYLE_COLOUR('',#316);
#309=FILL_AREA_STYLE_COLOUR('',#317);
#310=FILL_AREA_STYLE_COLOUR('',#318);
#311=COLOUR_RGB('',0.501960813999176,0.501960813999176,0.501960813999176);
#312=COLOUR_RGB('',0.501960813999176,0.501960813999176,0.501960813999176);
#313=COLOUR_RGB('',0.501960813999176,0.501960813999176,0.501960813999176);
#314=COLOUR_RGB('',0.501960813999176,0.501960813999176,0.501960813999176);
#315=COLOUR_RGB('',0.501960813999176,0.501960813999176,0.501960813999176);
#316=COLOUR_RGB('',0.501960813999176,0.501960813999176,0.501960813999176);
#317=COLOUR_RGB('',0.501960813999176,0.501960813999176,0.501960813999176);
#318=COLOUR_RGB('',0.501960813999176,0.501960813999176,0.501960813999176);
ENDSEC;
END-ISO-10303-21;
