ISO-10303-21;
HEADER;
FILE_DESCRIPTION((''),'1');
FILE_NAME('T:/00_BIG-HP\X2\FF71FF6FFF8CFF9F\X0\/\X2\670065B0\X0\2025_HP\X2\FF71FF6FFF8CFF9F4E885B9AFF83FF9EFF70FF80\X0\/01_DXF\X2\FF83FF9EFF70FF80\X0\/LINK\X2\7528FF83FF9EFF70FF80\X0\/CK\X2\FF8DFF6FFF84FF9E30FBFF71FF78FF7EFF7BFF98\X0\/10_\X2\4ED54E0A305275284E38FF8AFF9EFF72FF84FF7CFF98FF70FF7DFF9E\X0\/09_\X2\4E38FF8AFF9EFF72FF847528FF7DFF84FF9AFF70FF84FF7AFF9AFF6FFF84\X0\/EC1613.stp','2024-09-10T04:11:40',(''),(''),'Spatial Interop R21 SP3','Kubotek KeyCreator 2011 V10.0.2 (22737)',' ');
FILE_SCHEMA(('automotive_design'));
ENDSEC;
DATA;
#1=MECHANICAL_DESIGN_GEOMETRIC_PRESENTATION_REPRESENTATION(' ',(#10,#11,#12,#13,#14,#15,#16,#17,#18,#19,#20,#21,#22,#23,#24),#6);
#2=PRODUCT_DEFINITION_CONTEXT('',#25,'design');
#3=APPLICATION_PROTOCOL_DEFINITION('INTERNATIONAL STANDARD','automotive_design',1994,#25);
#4=PRODUCT_CATEGORY_RELATIONSHIP('NONE','NONE',#26,#27);
#5=SHAPE_DEFINITION_REPRESENTATION(#28,#29);
#6= (GEOMETRIC_REPRESENTATION_CONTEXT(3)GLOBAL_UNCERTAINTY_ASSIGNED_CONTEXT((#32))GLOBAL_UNIT_ASSIGNED_CONTEXT((#34,#35,#36))REPRESENTATION_CONTEXT('NONE','WORKSPACE'));
#10=STYLED_ITEM('',(#38),#39);
#11=STYLED_ITEM('',(#40,#41),#42);
#12=STYLED_ITEM('',(#43),#44);
#13=STYLED_ITEM('',(#45,#46),#47);
#14=STYLED_ITEM('',(#48,#49),#50);
#15=STYLED_ITEM('',(#51,#52),#53);
#16=STYLED_ITEM('',(#54),#55);
#17=STYLED_ITEM('',(#56,#57),#58);
#18=STYLED_ITEM('',(#59),#60);
#19=STYLED_ITEM('',(#61),#62);
#20=STYLED_ITEM('',(#63),#64);
#21=STYLED_ITEM('',(#65,#66),#67);
#22=STYLED_ITEM('',(#68,#69),#70);
#23=STYLED_ITEM('',(#71,#72),#73);
#24=STYLED_ITEM('',(#74),#75);
#25=APPLICATION_CONTEXT(' ');
#26=PRODUCT_CATEGORY('part','NONE');
#27=PRODUCT_RELATED_PRODUCT_CATEGORY('detail',' ',(#76));
#28=PRODUCT_DEFINITION_SHAPE('NONE','NONE',#77);
#29=ADVANCED_BREP_SHAPE_REPRESENTATION('240[2]',(#42,#78),#6);
#32=UNCERTAINTY_MEASURE_WITH_UNIT(LENGTH_MEASURE(1.0E-006),#34,'','');
#34= (CONVERSION_BASED_UNIT('MILLIMETRE',#81)LENGTH_UNIT()NAMED_UNIT(#84));
#35= (NAMED_UNIT(#86)PLANE_ANGLE_UNIT()SI_UNIT($,.RADIAN.));
#36= (NAMED_UNIT(#86)SOLID_ANGLE_UNIT()SI_UNIT($,.STERADIAN.));
#38=PRESENTATION_STYLE_ASSIGNMENT((#92));
#39=EDGE_CURVE('240[2]',#93,#93,#94,.T.);
#40=PRESENTATION_STYLE_ASSIGNMENT((#95));
#41=PRESENTATION_STYLE_ASSIGNMENT((#96));
#42=MANIFOLD_SOLID_BREP('240[2]',#97);
#43=PRESENTATION_STYLE_ASSIGNMENT((#98));
#44=EDGE_CURVE('240[2]',#99,#99,#100,.T.);
#45=PRESENTATION_STYLE_ASSIGNMENT((#101));
#46=PRESENTATION_STYLE_ASSIGNMENT((#102));
#47=ADVANCED_FACE('240[2]',(#103,#104),#105,.T.);
#48=PRESENTATION_STYLE_ASSIGNMENT((#106));
#49=PRESENTATION_STYLE_ASSIGNMENT((#107));
#50=ADVANCED_FACE('240[2]',(#108,#109),#110,.T.);
#51=PRESENTATION_STYLE_ASSIGNMENT((#111));
#52=PRESENTATION_STYLE_ASSIGNMENT((#112));
#53=ADVANCED_FACE('240[2]',(#113,#114),#115,.T.);
#54=PRESENTATION_STYLE_ASSIGNMENT((#116));
#55=EDGE_CURVE('240[2]',#117,#117,#118,.T.);
#56=PRESENTATION_STYLE_ASSIGNMENT((#119));
#57=PRESENTATION_STYLE_ASSIGNMENT((#120));
#58=ADVANCED_FACE('240[2]',(#121,#122),#123,.T.);
#59=PRESENTATION_STYLE_ASSIGNMENT((#124));
#60=EDGE_CURVE('240[2]',#125,#125,#126,.T.);
#61=PRESENTATION_STYLE_ASSIGNMENT((#127));
#62=EDGE_CURVE('240[2]',#128,#128,#129,.T.);
#63=PRESENTATION_STYLE_ASSIGNMENT((#130));
#64=EDGE_CURVE('240[2]',#131,#131,#132,.T.);
#65=PRESENTATION_STYLE_ASSIGNMENT((#133));
#66=PRESENTATION_STYLE_ASSIGNMENT((#134));
#67=ADVANCED_FACE('240[2]',(#135,#136),#137,.T.);
#68=PRESENTATION_STYLE_ASSIGNMENT((#138));
#69=PRESENTATION_STYLE_ASSIGNMENT((#139));
#70=ADVANCED_FACE('240[2]',(#140,#141),#142,.F.);
#71=PRESENTATION_STYLE_ASSIGNMENT((#143));
#72=PRESENTATION_STYLE_ASSIGNMENT((#144));
#73=ADVANCED_FACE('240[2]',(#145,#146),#147,.T.);
#74=PRESENTATION_STYLE_ASSIGNMENT((#148));
#75=EDGE_CURVE('240[2]',#149,#149,#150,.T.);
#76=PRODUCT('240[2]','240[2]','PART-240[2]-DESC',(#151));
#77=PRODUCT_DEFINITION('NONE','NONE',#152,#2);
#78=AXIS2_PLACEMENT_3D('',#153,#154,#155);
#81=LENGTH_MEASURE_WITH_UNIT(LENGTH_MEASURE(1.0),#156);
#84=DIMENSIONAL_EXPONENTS(1.0,0.0,0.0,0.0,0.0,0.0,0.0);
#86=DIMENSIONAL_EXPONENTS(0.0,0.0,0.0,0.0,0.0,0.0,0.0);
#92=CURVE_STYLE('',#157,POSITIVE_LENGTH_MEASURE(1000.0),#158);
#93=VERTEX_POINT('',#159);
#94=CIRCLE('',#160,6.5);
#95=SURFACE_STYLE_USAGE(.BOTH.,#161);
#96=CURVE_STYLE('',#162,POSITIVE_LENGTH_MEASURE(1000.0),#163);
#97=CLOSED_SHELL('',(#67,#73,#58,#50,#53,#47,#70));
#98=CURVE_STYLE('',#164,POSITIVE_LENGTH_MEASURE(1000.0),#165);
#99=VERTEX_POINT('',#166);
#100=CIRCLE('',#167,8.0);
#101=SURFACE_STYLE_USAGE(.BOTH.,#168);
#102=CURVE_STYLE('',#169,POSITIVE_LENGTH_MEASURE(1000.0),#170);
#103=FACE_BOUND('',#171,.T.);
#104=FACE_OUTER_BOUND('',#172,.T.);
#105=PLANE('',#173);
#106=SURFACE_STYLE_USAGE(.BOTH.,#174);
#107=CURVE_STYLE('',#175,POSITIVE_LENGTH_MEASURE(1000.0),#176);
#108=FACE_OUTER_BOUND('',#177,.T.);
#109=FACE_BOUND('',#178,.T.);
#110=PLANE('',#179);
#111=SURFACE_STYLE_USAGE(.BOTH.,#180);
#112=CURVE_STYLE('',#181,POSITIVE_LENGTH_MEASURE(1000.0),#182);
#113=FACE_BOUND('',#183,.T.);
#114=FACE_BOUND('',#184,.T.);
#115=CYLINDRICAL_SURFACE('',#185,8.5);
#116=CURVE_STYLE('',#186,POSITIVE_LENGTH_MEASURE(1000.0),#187);
#117=VERTEX_POINT('',#188);
#118=CIRCLE('',#189,8.5);
#119=SURFACE_STYLE_USAGE(.BOTH.,#190);
#120=CURVE_STYLE('',#191,POSITIVE_LENGTH_MEASURE(1000.0),#192);
#121=FACE_BOUND('',#193,.T.);
#122=FACE_BOUND('',#194,.T.);
#123=TOROIDAL_SURFACE('',#195,7.6875,0.8125);
#124=CURVE_STYLE('',#196,POSITIVE_LENGTH_MEASURE(1000.0),#197);
#125=VERTEX_POINT('',#198);
#126=CIRCLE('',#199,6.5);
#127=CURVE_STYLE('',#200,POSITIVE_LENGTH_MEASURE(1000.0),#201);
#128=VERTEX_POINT('',#202);
#129=CIRCLE('',#203,8.0);
#130=CURVE_STYLE('',#204,POSITIVE_LENGTH_MEASURE(1000.0),#205);
#131=VERTEX_POINT('',#206);
#132=CIRCLE('',#207,8.5);
#133=SURFACE_STYLE_USAGE(.BOTH.,#208);
#134=CURVE_STYLE('',#209,POSITIVE_LENGTH_MEASURE(1000.0),#210);
#135=FACE_OUTER_BOUND('',#211,.T.);
#136=FACE_BOUND('',#212,.T.);
#137=PLANE('',#213);
#138=SURFACE_STYLE_USAGE(.BOTH.,#214);
#139=CURVE_STYLE('',#215,POSITIVE_LENGTH_MEASURE(1000.0),#216);
#140=FACE_BOUND('',#217,.T.);
#141=FACE_BOUND('',#218,.T.);
#142=CYLINDRICAL_SURFACE('',#219,6.5);
#143=SURFACE_STYLE_USAGE(.BOTH.,#220);
#144=CURVE_STYLE('',#221,POSITIVE_LENGTH_MEASURE(1000.0),#222);
#145=FACE_BOUND('',#223,.T.);
#146=FACE_BOUND('',#224,.T.);
#147=CYLINDRICAL_SURFACE('',#225,8.0);
#148=CURVE_STYLE('',#226,POSITIVE_LENGTH_MEASURE(1000.0),#227);
#149=VERTEX_POINT('',#228);
#150=CIRCLE('',#229,8.0);
#151=PRODUCT_CONTEXT('',#25,'mechanical');
#152=PRODUCT_DEFINITION_FORMATION_WITH_SPECIFIED_SOURCE(' ','NONE',#76,.NOT_KNOWN.);
#153=CARTESIAN_POINT('',(0.0,0.0,0.0));
#154=DIRECTION('',(0.0,0.0,1.0));
#155=DIRECTION('',(1.0,0.0,0.0));
#156= (NAMED_UNIT(#84)LENGTH_UNIT()SI_UNIT(.MILLI.,.METRE.));
#157=DRAUGHTING_PRE_DEFINED_CURVE_FONT('continuous');
#158=COLOUR_RGB('',0.501960813999176,0.501960813999176,0.501960813999176);
#159=CARTESIAN_POINT('',(9.18485099360514E-017,6.5,-1.5));
#160=AXIS2_PLACEMENT_3D('',#231,#232,#233);
#161=SURFACE_SIDE_STYLE('',(#234));
#162=DRAUGHTING_PRE_DEFINED_CURVE_FONT('continuous');
#163=COLOUR_RGB('',0.501960813999176,0.501960813999176,0.501960813999176);
#164=DRAUGHTING_PRE_DEFINED_CURVE_FONT('continuous');
#165=COLOUR_RGB('',0.501960813999176,0.501960813999176,0.501960813999176);
#166=CARTESIAN_POINT('',(-2.2655965784226E-015,8.0,37.0));
#167=AXIS2_PLACEMENT_3D('',#235,#236,#237);
#168=SURFACE_SIDE_STYLE('',(#238));
#169=DRAUGHTING_PRE_DEFINED_CURVE_FONT('continuous');
#170=COLOUR_RGB('',0.501960813999176,0.501960813999176,0.501960813999176);
#171=EDGE_LOOP('',(#239));
#172=EDGE_LOOP('',(#240));
#173=AXIS2_PLACEMENT_3D('',#241,#242,#243);
#174=SURFACE_SIDE_STYLE('',(#244));
#175=DRAUGHTING_PRE_DEFINED_CURVE_FONT('continuous');
#176=COLOUR_RGB('',0.501960813999176,0.501960813999176,0.501960813999176);
#177=EDGE_LOOP('',(#245));
#178=EDGE_LOOP('',(#246));
#179=AXIS2_PLACEMENT_3D('',#247,#248,#249);
#180=SURFACE_SIDE_STYLE('',(#250));
#181=DRAUGHTING_PRE_DEFINED_CURVE_FONT('continuous');
#182=COLOUR_RGB('',0.501960813999176,0.501960813999176,0.501960813999176);
#183=EDGE_LOOP('',(#251));
#184=EDGE_LOOP('',(#252));
#185=AXIS2_PLACEMENT_3D('',#253,#254,#255);
#186=DRAUGHTING_PRE_DEFINED_CURVE_FONT('continuous');
#187=COLOUR_RGB('',0.501960813999176,0.501960813999176,0.501960813999176);
#188=CARTESIAN_POINT('',(9.18485099360514E-017,8.5,-1.5));
#189=AXIS2_PLACEMENT_3D('',#256,#257,#258);
#190=SURFACE_SIDE_STYLE('',(#259));
#191=DRAUGHTING_PRE_DEFINED_CURVE_FONT('continuous');
#192=COLOUR_RGB('',0.501960813999176,0.501960813999176,0.501960813999176);
#193=EDGE_LOOP('',(#260));
#194=EDGE_LOOP('',(#261));
#195=AXIS2_PLACEMENT_3D('',#262,#263,#264);
#196=DRAUGHTING_PRE_DEFINED_CURVE_FONT('continuous');
#197=COLOUR_RGB('',0.501960813999176,0.501960813999176,0.501960813999176);
#198=CARTESIAN_POINT('',(-2.2655965784226E-015,6.5,37.0));
#199=AXIS2_PLACEMENT_3D('',#265,#266,#267);
#200=DRAUGHTING_PRE_DEFINED_CURVE_FONT('continuous');
#201=COLOUR_RGB('',0.501960813999176,0.501960813999176,0.501960813999176);
#202=CARTESIAN_POINT('',(-9.18485099360516E-017,8.0,1.5));
#203=AXIS2_PLACEMENT_3D('',#268,#269,#270);
#204=DRAUGHTING_PRE_DEFINED_CURVE_FONT('continuous');
#205=COLOUR_RGB('',0.501960813999176,0.501960813999176,0.501960813999176);
#206=CARTESIAN_POINT('',(-1.04770588974666E-031,8.5,1.04094977927525E-015));
#207=AXIS2_PLACEMENT_3D('',#271,#272,#273);
#208=SURFACE_SIDE_STYLE('',(#274));
#209=DRAUGHTING_PRE_DEFINED_CURVE_FONT('continuous');
#210=COLOUR_RGB('',0.501960813999176,0.501960813999176,0.501960813999176);
#211=EDGE_LOOP('',(#275));
#212=EDGE_LOOP('',(#276));
#213=AXIS2_PLACEMENT_3D('',#277,#278,#279);
#214=SURFACE_SIDE_STYLE('',(#280));
#215=DRAUGHTING_PRE_DEFINED_CURVE_FONT('continuous');
#216=COLOUR_RGB('',0.501960813999176,0.501960813999176,0.501960813999176);
#217=EDGE_LOOP('',(#281));
#218=EDGE_LOOP('',(#282));
#219=AXIS2_PLACEMENT_3D('',#283,#284,#285);
#220=SURFACE_SIDE_STYLE('',(#286));
#221=DRAUGHTING_PRE_DEFINED_CURVE_FONT('continuous');
#222=COLOUR_RGB('',0.501960813999176,0.501960813999176,0.501960813999176);
#223=EDGE_LOOP('',(#287));
#224=EDGE_LOOP('',(#288));
#225=AXIS2_PLACEMENT_3D('',#289,#290,#291);
#226=DRAUGHTING_PRE_DEFINED_CURVE_FONT('continuous');
#227=COLOUR_RGB('',0.501960813999176,0.501960813999176,0.501960813999176);
#228=CARTESIAN_POINT('',(-9.86076131526265E-032,8.0,9.79717439317882E-016));
#229=AXIS2_PLACEMENT_3D('',#292,#293,#294);
#231=CARTESIAN_POINT('',(9.18485099360515E-017,1.83697019872103E-016,-1.5));
#232=DIRECTION('',(6.12323399573677E-017,1.22464679914735E-016,-1.0));
#233=DIRECTION('',(-1.23259516440783E-032,1.0,1.22464679914735E-016));
#234=SURFACE_STYLE_FILL_AREA(#295);
#235=CARTESIAN_POINT('',(-2.2655965784226E-015,-4.53119315684521E-015,37.0));
#236=DIRECTION('',(6.12323399573677E-017,1.22464679914735E-016,-1.0));
#237=DIRECTION('',(-1.23259516440783E-032,1.0,1.22464679914735E-016));
#238=SURFACE_STYLE_FILL_AREA(#296);
#239=ORIENTED_EDGE('',*,*,#39,.F.);
#240=ORIENTED_EDGE('',*,*,#55,.T.);
#241=CARTESIAN_POINT('',(9.18485099360514E-017,7.5,-1.5));
#242=DIRECTION('',(6.12323399573677E-017,1.22464679914735E-016,-1.0));
#243=DIRECTION('',(-1.23259516440783E-032,1.0,1.22464679914735E-016));
#244=SURFACE_STYLE_FILL_AREA(#297);
#245=ORIENTED_EDGE('',*,*,#64,.F.);
#246=ORIENTED_EDGE('',*,*,#75,.T.);
#247=CARTESIAN_POINT('',(-1.01689101063646E-031,8.25,1.01033360929657E-015));
#248=DIRECTION('',(-6.12323399573677E-017,-1.22464679914735E-016,1.0));
#249=DIRECTION('',(1.23259516440783E-032,-1.0,-1.22464679914735E-016));
#250=SURFACE_STYLE_FILL_AREA(#298);
#251=ORIENTED_EDGE('',*,*,#55,.F.);
#252=ORIENTED_EDGE('',*,*,#64,.T.);
#253=CARTESIAN_POINT('',(4.59242549680257E-017,9.18485099360515E-017,-0.75));
#254=DIRECTION('',(6.12323399573676E-017,1.22464679914735E-016,-1.0));
#255=DIRECTION('',(-1.23259516440783E-032,1.0,1.22464679914735E-016));
#256=CARTESIAN_POINT('',(9.18485099360515E-017,1.83697019872103E-016,-1.5));
#257=DIRECTION('',(6.12323399573676E-017,1.22464679914735E-016,-1.0));
#258=DIRECTION('',(-1.23259516440783E-032,1.0,1.22464679914735E-016));
#259=SURFACE_STYLE_FILL_AREA(#299);
#260=ORIENTED_EDGE('',*,*,#75,.F.);
#261=ORIENTED_EDGE('',*,*,#62,.T.);
#262=CARTESIAN_POINT('',(-4.59242549680257E-017,-9.18485099360515E-017,0.75));
#263=DIRECTION('',(6.12323399573677E-017,1.22464679914735E-016,-1.0));
#264=DIRECTION('',(-1.0,-4.82715273076902E-033,-6.12323399573677E-017));
#265=CARTESIAN_POINT('',(-2.2655965784226E-015,-4.53119315684521E-015,37.0));
#266=DIRECTION('',(6.12323399573677E-017,1.22464679914735E-016,-1.0));
#267=DIRECTION('',(-1.23259516440783E-032,1.0,1.22464679914735E-016));
#268=CARTESIAN_POINT('',(-9.18485099360515E-017,-1.83697019872103E-016,1.5));
#269=DIRECTION('',(6.12323399573677E-017,1.22464679914735E-016,-1.0));
#270=DIRECTION('',(-1.23259516440783E-032,1.0,1.22464679914735E-016));
#271=CARTESIAN_POINT('',(0.0,0.0,0.0));
#272=DIRECTION('',(6.12323399573676E-017,1.22464679914735E-016,-1.0));
#273=DIRECTION('',(-1.23259516440783E-032,1.0,1.22464679914735E-016));
#274=SURFACE_STYLE_FILL_AREA(#300);
#275=ORIENTED_EDGE('',*,*,#44,.F.);
#276=ORIENTED_EDGE('',*,*,#60,.T.);
#277=CARTESIAN_POINT('',(-2.2655965784226E-015,7.25,37.0));
#278=DIRECTION('',(-6.12323399573677E-017,-1.22464679914735E-016,1.0));
#279=DIRECTION('',(1.23259516440783E-032,-1.0,-1.22464679914735E-016));
#280=SURFACE_STYLE_FILL_AREA(#301);
#281=ORIENTED_EDGE('',*,*,#60,.F.);
#282=ORIENTED_EDGE('',*,*,#39,.T.);
#283=CARTESIAN_POINT('',(-1.08687403424328E-015,-2.17374806848655E-015,17.75));
#284=DIRECTION('',(6.12323399573677E-017,1.22464679914735E-016,-1.0));
#285=DIRECTION('',(-1.23259516440783E-032,1.0,1.22464679914735E-016));
#286=SURFACE_STYLE_FILL_AREA(#302);
#287=ORIENTED_EDGE('',*,*,#62,.F.);
#288=ORIENTED_EDGE('',*,*,#44,.T.);
#289=CARTESIAN_POINT('',(-1.17872254417933E-015,-2.35744508835865E-015,19.25));
#290=DIRECTION('',(6.12323399573677E-017,1.22464679914735E-016,-1.0));
#291=DIRECTION('',(-1.23259516440783E-032,1.0,1.22464679914735E-016));
#292=CARTESIAN_POINT('',(0.0,0.0,0.0));
#293=DIRECTION('',(6.12323399573677E-017,1.22464679914735E-016,-1.0));
#294=DIRECTION('',(-1.23259516440783E-032,1.0,1.22464679914735E-016));
#295=FILL_AREA_STYLE('',(#303));
#296=FILL_AREA_STYLE('',(#304));
#297=FILL_AREA_STYLE('',(#305));
#298=FILL_AREA_STYLE('',(#306));
#299=FILL_AREA_STYLE('',(#307));
#300=FILL_AREA_STYLE('',(#308));
#301=FILL_AREA_STYLE('',(#309));
#302=FILL_AREA_STYLE('',(#310));
#303=FILL_AREA_STYLE_COLOUR('',#311);
#304=FILL_AREA_STYLE_COLOUR('',#312);
#305=FILL_AREA_STYLE_COLOUR('',#313);
#306=FILL_AREA_STYLE_COLOUR('',#314);
#307=FILL_AREA_STYLE_COLOUR('',#315);
#308=FILL_AREA_STYLE_COLOUR('',#316);
#309=FILL_AREA_STYLE_COLOUR('',#317);
#310=FILL_AREA_STYLE_COLOUR('',#318);
#311=COLOUR_RGB('',0.501960813999176,0.501960813999176,0.501960813999176);
#312=COLOUR_RGB('',0.501960813999176,0.501960813999176,0.501960813999176);
#313=COLOUR_RGB('',0.501960813999176,0.501960813999176,0.501960813999176);
#314=COLOUR_RGB('',0.501960813999176,0.501960813999176,0.501960813999176);
#315=COLOUR_RGB('',0.501960813999176,0.501960813999176,0.501960813999176);
#316=COLOUR_RGB('',0.501960813999176,0.501960813999176,0.501960813999176);
#317=COLOUR_RGB('',0.501960813999176,0.501960813999176,0.501960813999176);
#318=COLOUR_RGB('',0.501960813999176,0.501960813999176,0.501960813999176);
ENDSEC;
END-ISO-10303-21;
