ISO-10303-21;
HEADER;
FILE_DESCRIPTION((''),'1');
FILE_NAME('T:/00_BIG-HP\X2\FF71FF6FFF8CFF9F\X0\/\X2\670065B0\X0\2025_HP\X2\FF71FF6FFF8CFF9F4E885B9AFF83FF9EFF70FF80\X0\/01_DXF\X2\FF83FF9EFF70FF80\X0\/LINK\X2\7528FF83FF9EFF70FF80\X0\/CK\X2\FF8DFF6FFF84FF9E30FBFF71FF78FF7EFF7BFF98\X0\/10_\X2\4ED54E0A305275284E38FF8AFF9EFF72FF84FF7CFF98FF70FF7DFF9E\X0\/09_\X2\4E38FF8AFF9EFF72FF847528FF7DFF84FF9AFF70FF84FF7AFF9AFF6FFF84\X0\/EC1612.stp','2024-09-10T04:08:38',(''),(''),'Spatial Interop R21 SP3','Kubotek KeyCreator 2011 V10.0.2 (22737)',' ');
FILE_SCHEMA(('automotive_design'));
ENDSEC;
DATA;
#1=MECHANICAL_DESIGN_GEOMETRIC_PRESENTATION_REPRESENTATION(' ',(#10,#11,#12,#13,#14,#15,#16,#17,#18,#19,#20,#21,#22,#23,#24),#6);
#2=PRODUCT_DEFINITION_CONTEXT('',#25,'design');
#3=APPLICATION_PROTOCOL_DEFINITION('INTERNATIONAL STANDARD','automotive_design',1994,#25);
#4=PRODUCT_CATEGORY_RELATIONSHIP('NONE','NONE',#26,#27);
#5=SHAPE_DEFINITION_REPRESENTATION(#28,#29);
#6= (GEOMETRIC_REPRESENTATION_CONTEXT(3)GLOBAL_UNCERTAINTY_ASSIGNED_CONTEXT((#32))GLOBAL_UNIT_ASSIGNED_CONTEXT((#34,#35,#36))REPRESENTATION_CONTEXT('NONE','WORKSPACE'));
#10=STYLED_ITEM('',(#38),#39);
#11=STYLED_ITEM('',(#40,#41),#42);
#12=STYLED_ITEM('',(#43,#44),#45);
#13=STYLED_ITEM('',(#46,#47),#48);
#14=STYLED_ITEM('',(#49),#50);
#15=STYLED_ITEM('',(#51,#52),#53);
#16=STYLED_ITEM('',(#54,#55),#56);
#17=STYLED_ITEM('',(#57),#58);
#18=STYLED_ITEM('',(#59,#60),#61);
#19=STYLED_ITEM('',(#62,#63),#64);
#20=STYLED_ITEM('',(#65,#66),#67);
#21=STYLED_ITEM('',(#68),#69);
#22=STYLED_ITEM('',(#70),#71);
#23=STYLED_ITEM('',(#72),#73);
#24=STYLED_ITEM('',(#74),#75);
#25=APPLICATION_CONTEXT(' ');
#26=PRODUCT_CATEGORY('part','NONE');
#27=PRODUCT_RELATED_PRODUCT_CATEGORY('detail',' ',(#76));
#28=PRODUCT_DEFINITION_SHAPE('NONE','NONE',#77);
#29=ADVANCED_BREP_SHAPE_REPRESENTATION('240[2]',(#53,#78),#6);
#32=UNCERTAINTY_MEASURE_WITH_UNIT(LENGTH_MEASURE(1.0E-006),#34,'','');
#34= (CONVERSION_BASED_UNIT('MILLIMETRE',#81)LENGTH_UNIT()NAMED_UNIT(#84));
#35= (NAMED_UNIT(#86)PLANE_ANGLE_UNIT()SI_UNIT($,.RADIAN.));
#36= (NAMED_UNIT(#86)SOLID_ANGLE_UNIT()SI_UNIT($,.STERADIAN.));
#38=PRESENTATION_STYLE_ASSIGNMENT((#92));
#39=EDGE_CURVE('240[2]',#93,#93,#94,.T.);
#40=PRESENTATION_STYLE_ASSIGNMENT((#95));
#41=PRESENTATION_STYLE_ASSIGNMENT((#96));
#42=ADVANCED_FACE('240[2]',(#97,#98),#99,.T.);
#43=PRESENTATION_STYLE_ASSIGNMENT((#100));
#44=PRESENTATION_STYLE_ASSIGNMENT((#101));
#45=ADVANCED_FACE('240[2]',(#102,#103),#104,.F.);
#46=PRESENTATION_STYLE_ASSIGNMENT((#105));
#47=PRESENTATION_STYLE_ASSIGNMENT((#106));
#48=ADVANCED_FACE('240[2]',(#107,#108),#109,.T.);
#49=PRESENTATION_STYLE_ASSIGNMENT((#110));
#50=EDGE_CURVE('240[2]',#111,#111,#112,.T.);
#51=PRESENTATION_STYLE_ASSIGNMENT((#113));
#52=PRESENTATION_STYLE_ASSIGNMENT((#114));
#53=MANIFOLD_SOLID_BREP('240[2]',#115);
#54=PRESENTATION_STYLE_ASSIGNMENT((#116));
#55=PRESENTATION_STYLE_ASSIGNMENT((#117));
#56=ADVANCED_FACE('240[2]',(#118,#119),#120,.T.);
#57=PRESENTATION_STYLE_ASSIGNMENT((#121));
#58=EDGE_CURVE('240[2]',#122,#122,#123,.T.);
#59=PRESENTATION_STYLE_ASSIGNMENT((#124));
#60=PRESENTATION_STYLE_ASSIGNMENT((#125));
#61=ADVANCED_FACE('240[2]',(#126,#127),#128,.T.);
#62=PRESENTATION_STYLE_ASSIGNMENT((#129));
#63=PRESENTATION_STYLE_ASSIGNMENT((#130));
#64=ADVANCED_FACE('240[2]',(#131,#132),#133,.T.);
#65=PRESENTATION_STYLE_ASSIGNMENT((#134));
#66=PRESENTATION_STYLE_ASSIGNMENT((#135));
#67=ADVANCED_FACE('240[2]',(#136,#137),#138,.T.);
#68=PRESENTATION_STYLE_ASSIGNMENT((#139));
#69=EDGE_CURVE('240[2]',#140,#140,#141,.T.);
#70=PRESENTATION_STYLE_ASSIGNMENT((#142));
#71=EDGE_CURVE('240[2]',#143,#143,#144,.T.);
#72=PRESENTATION_STYLE_ASSIGNMENT((#145));
#73=EDGE_CURVE('240[2]',#146,#146,#147,.T.);
#74=PRESENTATION_STYLE_ASSIGNMENT((#148));
#75=EDGE_CURVE('240[2]',#149,#149,#150,.T.);
#76=PRODUCT('240[2]','240[2]','PART-240[2]-DESC',(#151));
#77=PRODUCT_DEFINITION('NONE','NONE',#152,#2);
#78=AXIS2_PLACEMENT_3D('',#153,#154,#155);
#81=LENGTH_MEASURE_WITH_UNIT(LENGTH_MEASURE(1.0),#156);
#84=DIMENSIONAL_EXPONENTS(1.0,0.0,0.0,0.0,0.0,0.0,0.0);
#86=DIMENSIONAL_EXPONENTS(0.0,0.0,0.0,0.0,0.0,0.0,0.0);
#92=CURVE_STYLE('',#157,POSITIVE_LENGTH_MEASURE(1000.0),#158);
#93=VERTEX_POINT('',#159);
#94=CIRCLE('',#160,8.0);
#95=SURFACE_STYLE_USAGE(.BOTH.,#161);
#96=CURVE_STYLE('',#162,POSITIVE_LENGTH_MEASURE(1000.0),#163);
#97=FACE_BOUND('',#164,.T.);
#98=FACE_BOUND('',#165,.T.);
#99=TOROIDAL_SURFACE('',#166,7.6875,0.8125);
#100=SURFACE_STYLE_USAGE(.BOTH.,#167);
#101=CURVE_STYLE('',#168,POSITIVE_LENGTH_MEASURE(1000.0),#169);
#102=FACE_BOUND('',#170,.T.);
#103=FACE_BOUND('',#171,.T.);
#104=CYLINDRICAL_SURFACE('',#172,6.0);
#105=SURFACE_STYLE_USAGE(.BOTH.,#173);
#106=CURVE_STYLE('',#174,POSITIVE_LENGTH_MEASURE(1000.0),#175);
#107=FACE_BOUND('',#176,.T.);
#108=FACE_OUTER_BOUND('',#177,.T.);
#109=PLANE('',#178);
#110=CURVE_STYLE('',#179,POSITIVE_LENGTH_MEASURE(1000.0),#180);
#111=VERTEX_POINT('',#181);
#112=CIRCLE('',#182,8.0);
#113=SURFACE_STYLE_USAGE(.BOTH.,#183);
#114=CURVE_STYLE('',#184,POSITIVE_LENGTH_MEASURE(1000.0),#185);
#115=CLOSED_SHELL('',(#64,#56,#42,#61,#67,#48,#45));
#116=SURFACE_STYLE_USAGE(.BOTH.,#186);
#117=CURVE_STYLE('',#187,POSITIVE_LENGTH_MEASURE(1000.0),#188);
#118=FACE_BOUND('',#189,.T.);
#119=FACE_BOUND('',#190,.T.);
#120=CYLINDRICAL_SURFACE('',#191,8.0);
#121=CURVE_STYLE('',#192,POSITIVE_LENGTH_MEASURE(1000.0),#193);
#122=VERTEX_POINT('',#194);
#123=CIRCLE('',#195,6.0);
#124=SURFACE_STYLE_USAGE(.BOTH.,#196);
#125=CURVE_STYLE('',#197,POSITIVE_LENGTH_MEASURE(1000.0),#198);
#126=FACE_OUTER_BOUND('',#199,.T.);
#127=FACE_BOUND('',#200,.T.);
#128=PLANE('',#201);
#129=SURFACE_STYLE_USAGE(.BOTH.,#202);
#130=CURVE_STYLE('',#203,POSITIVE_LENGTH_MEASURE(1000.0),#204);
#131=FACE_OUTER_BOUND('',#205,.T.);
#132=FACE_BOUND('',#206,.T.);
#133=PLANE('',#207);
#134=SURFACE_STYLE_USAGE(.BOTH.,#208);
#135=CURVE_STYLE('',#209,POSITIVE_LENGTH_MEASURE(1000.0),#210);
#136=FACE_BOUND('',#211,.T.);
#137=FACE_BOUND('',#212,.T.);
#138=CYLINDRICAL_SURFACE('',#213,8.5);
#139=CURVE_STYLE('',#214,POSITIVE_LENGTH_MEASURE(1000.0),#215);
#140=VERTEX_POINT('',#216);
#141=CIRCLE('',#217,8.5);
#142=CURVE_STYLE('',#218,POSITIVE_LENGTH_MEASURE(1000.0),#219);
#143=VERTEX_POINT('',#220);
#144=CIRCLE('',#221,6.0);
#145=CURVE_STYLE('',#222,POSITIVE_LENGTH_MEASURE(1000.0),#223);
#146=VERTEX_POINT('',#224);
#147=CIRCLE('',#225,8.0);
#148=CURVE_STYLE('',#226,POSITIVE_LENGTH_MEASURE(1000.0),#227);
#149=VERTEX_POINT('',#228);
#150=CIRCLE('',#229,8.5);
#151=PRODUCT_CONTEXT('',#25,'mechanical');
#152=PRODUCT_DEFINITION_FORMATION_WITH_SPECIFIED_SOURCE(' ','NONE',#76,.NOT_KNOWN.);
#153=CARTESIAN_POINT('',(0.0,0.0,0.0));
#154=DIRECTION('',(0.0,0.0,1.0));
#155=DIRECTION('',(1.0,0.0,0.0));
#156= (NAMED_UNIT(#84)LENGTH_UNIT()SI_UNIT(.MILLI.,.METRE.));
#157=DRAUGHTING_PRE_DEFINED_CURVE_FONT('continuous');
#158=COLOUR_RGB('',0.501960813999176,0.501960813999176,0.501960813999176);
#159=CARTESIAN_POINT('',(-9.86076131526265E-032,8.0,9.79717439317882E-016));
#160=AXIS2_PLACEMENT_3D('',#231,#232,#233);
#161=SURFACE_SIDE_STYLE('',(#234));
#162=DRAUGHTING_PRE_DEFINED_CURVE_FONT('continuous');
#163=COLOUR_RGB('',0.501960813999176,0.501960813999176,0.501960813999176);
#164=EDGE_LOOP('',(#235));
#165=EDGE_LOOP('',(#236));
#166=AXIS2_PLACEMENT_3D('',#237,#238,#239);
#167=SURFACE_SIDE_STYLE('',(#240));
#168=DRAUGHTING_PRE_DEFINED_CURVE_FONT('continuous');
#169=COLOUR_RGB('',0.501960813999176,0.501960813999176,0.501960813999176);
#170=EDGE_LOOP('',(#241));
#171=EDGE_LOOP('',(#242));
#172=AXIS2_PLACEMENT_3D('',#243,#244,#245);
#173=SURFACE_SIDE_STYLE('',(#246));
#174=DRAUGHTING_PRE_DEFINED_CURVE_FONT('continuous');
#175=COLOUR_RGB('',0.501960813999176,0.501960813999176,0.501960813999176);
#176=EDGE_LOOP('',(#247));
#177=EDGE_LOOP('',(#248));
#178=AXIS2_PLACEMENT_3D('',#249,#250,#251);
#179=DRAUGHTING_PRE_DEFINED_CURVE_FONT('continuous');
#180=COLOUR_RGB('',0.501960813999176,0.501960813999176,0.501960813999176);
#181=CARTESIAN_POINT('',(-2.2655965784226E-015,8.0,37.0));
#182=AXIS2_PLACEMENT_3D('',#252,#253,#254);
#183=SURFACE_SIDE_STYLE('',(#255));
#184=DRAUGHTING_PRE_DEFINED_CURVE_FONT('continuous');
#185=COLOUR_RGB('',0.501960813999176,0.501960813999176,0.501960813999176);
#186=SURFACE_SIDE_STYLE('',(#256));
#187=DRAUGHTING_PRE_DEFINED_CURVE_FONT('continuous');
#188=COLOUR_RGB('',0.501960813999176,0.501960813999176,0.501960813999176);
#189=EDGE_LOOP('',(#257));
#190=EDGE_LOOP('',(#258));
#191=AXIS2_PLACEMENT_3D('',#259,#260,#261);
#192=DRAUGHTING_PRE_DEFINED_CURVE_FONT('continuous');
#193=COLOUR_RGB('',0.501960813999176,0.501960813999176,0.501960813999176);
#194=CARTESIAN_POINT('',(9.18485099360514E-017,6.0,-1.5));
#195=AXIS2_PLACEMENT_3D('',#262,#263,#264);
#196=SURFACE_SIDE_STYLE('',(#265));
#197=DRAUGHTING_PRE_DEFINED_CURVE_FONT('continuous');
#198=COLOUR_RGB('',0.501960813999176,0.501960813999176,0.501960813999176);
#199=EDGE_LOOP('',(#266));
#200=EDGE_LOOP('',(#267));
#201=AXIS2_PLACEMENT_3D('',#268,#269,#270);
#202=SURFACE_SIDE_STYLE('',(#271));
#203=DRAUGHTING_PRE_DEFINED_CURVE_FONT('continuous');
#204=COLOUR_RGB('',0.501960813999176,0.501960813999176,0.501960813999176);
#205=EDGE_LOOP('',(#272));
#206=EDGE_LOOP('',(#273));
#207=AXIS2_PLACEMENT_3D('',#274,#275,#276);
#208=SURFACE_SIDE_STYLE('',(#277));
#209=DRAUGHTING_PRE_DEFINED_CURVE_FONT('continuous');
#210=COLOUR_RGB('',0.501960813999176,0.501960813999176,0.501960813999176);
#211=EDGE_LOOP('',(#278));
#212=EDGE_LOOP('',(#279));
#213=AXIS2_PLACEMENT_3D('',#280,#281,#282);
#214=DRAUGHTING_PRE_DEFINED_CURVE_FONT('continuous');
#215=COLOUR_RGB('',0.501960813999176,0.501960813999176,0.501960813999176);
#216=CARTESIAN_POINT('',(9.18485099360514E-017,8.5,-1.5));
#217=AXIS2_PLACEMENT_3D('',#283,#284,#285);
#218=DRAUGHTING_PRE_DEFINED_CURVE_FONT('continuous');
#219=COLOUR_RGB('',0.501960813999176,0.501960813999176,0.501960813999176);
#220=CARTESIAN_POINT('',(-2.2655965784226E-015,6.0,37.0));
#221=AXIS2_PLACEMENT_3D('',#286,#287,#288);
#222=DRAUGHTING_PRE_DEFINED_CURVE_FONT('continuous');
#223=COLOUR_RGB('',0.501960813999176,0.501960813999176,0.501960813999176);
#224=CARTESIAN_POINT('',(-9.18485099360516E-017,8.0,1.5));
#225=AXIS2_PLACEMENT_3D('',#289,#290,#291);
#226=DRAUGHTING_PRE_DEFINED_CURVE_FONT('continuous');
#227=COLOUR_RGB('',0.501960813999176,0.501960813999176,0.501960813999176);
#228=CARTESIAN_POINT('',(-1.04770588974666E-031,8.5,1.04094977927525E-015));
#229=AXIS2_PLACEMENT_3D('',#292,#293,#294);
#231=CARTESIAN_POINT('',(0.0,0.0,0.0));
#232=DIRECTION('',(6.12323399573677E-017,1.22464679914735E-016,-1.0));
#233=DIRECTION('',(-1.23259516440783E-032,1.0,1.22464679914735E-016));
#234=SURFACE_STYLE_FILL_AREA(#295);
#235=ORIENTED_EDGE('',*,*,#39,.F.);
#236=ORIENTED_EDGE('',*,*,#73,.T.);
#237=CARTESIAN_POINT('',(-4.59242549680257E-017,-9.18485099360515E-017,0.75));
#238=DIRECTION('',(6.12323399573677E-017,1.22464679914735E-016,-1.0));
#239=DIRECTION('',(-1.0,-4.82715273076902E-033,-6.12323399573677E-017));
#240=SURFACE_STYLE_FILL_AREA(#296);
#241=ORIENTED_EDGE('',*,*,#71,.F.);
#242=ORIENTED_EDGE('',*,*,#58,.T.);
#243=CARTESIAN_POINT('',(-1.08687403424328E-015,-2.17374806848655E-015,17.75));
#244=DIRECTION('',(6.12323399573677E-017,1.22464679914735E-016,-1.0));
#245=DIRECTION('',(-1.23259516440783E-032,1.0,1.22464679914735E-016));
#246=SURFACE_STYLE_FILL_AREA(#297);
#247=ORIENTED_EDGE('',*,*,#58,.F.);
#248=ORIENTED_EDGE('',*,*,#69,.T.);
#249=CARTESIAN_POINT('',(9.18485099360514E-017,7.25,-1.5));
#250=DIRECTION('',(6.12323399573677E-017,1.22464679914735E-016,-1.0));
#251=DIRECTION('',(-1.23259516440783E-032,1.0,1.22464679914735E-016));
#252=CARTESIAN_POINT('',(-2.2655965784226E-015,-4.53119315684521E-015,37.0));
#253=DIRECTION('',(6.12323399573677E-017,1.22464679914735E-016,-1.0));
#254=DIRECTION('',(-1.23259516440783E-032,1.0,1.22464679914735E-016));
#255=SURFACE_STYLE_FILL_AREA(#298);
#256=SURFACE_STYLE_FILL_AREA(#299);
#257=ORIENTED_EDGE('',*,*,#73,.F.);
#258=ORIENTED_EDGE('',*,*,#50,.T.);
#259=CARTESIAN_POINT('',(-1.17872254417933E-015,-2.35744508835865E-015,19.25));
#260=DIRECTION('',(6.12323399573677E-017,1.22464679914735E-016,-1.0));
#261=DIRECTION('',(-1.23259516440783E-032,1.0,1.22464679914735E-016));
#262=CARTESIAN_POINT('',(9.18485099360515E-017,1.83697019872103E-016,-1.5));
#263=DIRECTION('',(6.12323399573677E-017,1.22464679914735E-016,-1.0));
#264=DIRECTION('',(-1.23259516440783E-032,1.0,1.22464679914735E-016));
#265=SURFACE_STYLE_FILL_AREA(#300);
#266=ORIENTED_EDGE('',*,*,#75,.F.);
#267=ORIENTED_EDGE('',*,*,#39,.T.);
#268=CARTESIAN_POINT('',(-1.01689101063646E-031,8.25,1.01033360929657E-015));
#269=DIRECTION('',(-6.12323399573677E-017,-1.22464679914735E-016,1.0));
#270=DIRECTION('',(1.23259516440783E-032,-1.0,-1.22464679914735E-016));
#271=SURFACE_STYLE_FILL_AREA(#301);
#272=ORIENTED_EDGE('',*,*,#50,.F.);
#273=ORIENTED_EDGE('',*,*,#71,.T.);
#274=CARTESIAN_POINT('',(-2.2655965784226E-015,7.0,37.0));
#275=DIRECTION('',(-6.12323399573677E-017,-1.22464679914735E-016,1.0));
#276=DIRECTION('',(1.23259516440783E-032,-1.0,-1.22464679914735E-016));
#277=SURFACE_STYLE_FILL_AREA(#302);
#278=ORIENTED_EDGE('',*,*,#69,.F.);
#279=ORIENTED_EDGE('',*,*,#75,.T.);
#280=CARTESIAN_POINT('',(4.59242549680257E-017,9.18485099360515E-017,-0.75));
#281=DIRECTION('',(6.12323399573676E-017,1.22464679914735E-016,-1.0));
#282=DIRECTION('',(-1.23259516440783E-032,1.0,1.22464679914735E-016));
#283=CARTESIAN_POINT('',(9.18485099360515E-017,1.83697019872103E-016,-1.5));
#284=DIRECTION('',(6.12323399573676E-017,1.22464679914735E-016,-1.0));
#285=DIRECTION('',(-1.23259516440783E-032,1.0,1.22464679914735E-016));
#286=CARTESIAN_POINT('',(-2.2655965784226E-015,-4.53119315684521E-015,37.0));
#287=DIRECTION('',(6.12323399573677E-017,1.22464679914735E-016,-1.0));
#288=DIRECTION('',(-1.23259516440783E-032,1.0,1.22464679914735E-016));
#289=CARTESIAN_POINT('',(-9.18485099360515E-017,-1.83697019872103E-016,1.5));
#290=DIRECTION('',(6.12323399573677E-017,1.22464679914735E-016,-1.0));
#291=DIRECTION('',(-1.23259516440783E-032,1.0,1.22464679914735E-016));
#292=CARTESIAN_POINT('',(0.0,0.0,0.0));
#293=DIRECTION('',(6.12323399573676E-017,1.22464679914735E-016,-1.0));
#294=DIRECTION('',(-1.23259516440783E-032,1.0,1.22464679914735E-016));
#295=FILL_AREA_STYLE('',(#303));
#296=FILL_AREA_STYLE('',(#304));
#297=FILL_AREA_STYLE('',(#305));
#298=FILL_AREA_STYLE('',(#306));
#299=FILL_AREA_STYLE('',(#307));
#300=FILL_AREA_STYLE('',(#308));
#301=FILL_AREA_STYLE('',(#309));
#302=FILL_AREA_STYLE('',(#310));
#303=FILL_AREA_STYLE_COLOUR('',#311);
#304=FILL_AREA_STYLE_COLOUR('',#312);
#305=FILL_AREA_STYLE_COLOUR('',#313);
#306=FILL_AREA_STYLE_COLOUR('',#314);
#307=FILL_AREA_STYLE_COLOUR('',#315);
#308=FILL_AREA_STYLE_COLOUR('',#316);
#309=FILL_AREA_STYLE_COLOUR('',#317);
#310=FILL_AREA_STYLE_COLOUR('',#318);
#311=COLOUR_RGB('',0.501960813999176,0.501960813999176,0.501960813999176);
#312=COLOUR_RGB('',0.501960813999176,0.501960813999176,0.501960813999176);
#313=COLOUR_RGB('',0.501960813999176,0.501960813999176,0.501960813999176);
#314=COLOUR_RGB('',0.501960813999176,0.501960813999176,0.501960813999176);
#315=COLOUR_RGB('',0.501960813999176,0.501960813999176,0.501960813999176);
#316=COLOUR_RGB('',0.501960813999176,0.501960813999176,0.501960813999176);
#317=COLOUR_RGB('',0.501960813999176,0.501960813999176,0.501960813999176);
#318=COLOUR_RGB('',0.501960813999176,0.501960813999176,0.501960813999176);
ENDSEC;
END-ISO-10303-21;
