ISO-10303-21;
HEADER;
FILE_DESCRIPTION((''),'1');
FILE_NAME('T:/00_BIG-HP\X2\FF71FF6FFF8CFF9F\X0\/\X2\670065B0\X0\2025_HP\X2\FF71FF6FFF8CFF9F4E885B9AFF83FF9EFF70FF80\X0\/01_DXF\X2\FF83FF9EFF70FF80\X0\/LINK\X2\7528FF83FF9EFF70FF80\X0\/CK\X2\FF8DFF6FFF84FF9E30FBFF71FF78FF7EFF7BFF98\X0\/10_\X2\4ED54E0A305275284E38FF8AFF9EFF72FF84FF7CFF98FF70FF7DFF9E\X0\/09_\X2\4E38FF8AFF9EFF72FF847528FF7DFF84FF9AFF70FF84FF7AFF9AFF6FFF84\X0\/EC1611.stp','2024-09-10T03:54:30',(''),(''),'Spatial Interop R21 SP3','Kubotek KeyCreator 2011 V10.0.2 (22737)',' ');
FILE_SCHEMA(('automotive_design'));
ENDSEC;
DATA;
#1=MECHANICAL_DESIGN_GEOMETRIC_PRESENTATION_REPRESENTATION(' ',(#10,#11,#12,#13,#14,#15,#16,#17,#18,#19,#20,#21,#22,#23,#24),#6);
#2=PRODUCT_DEFINITION_CONTEXT('',#25,'design');
#3=APPLICATION_PROTOCOL_DEFINITION('INTERNATIONAL STANDARD','automotive_design',1994,#25);
#4=PRODUCT_CATEGORY_RELATIONSHIP('NONE','NONE',#26,#27);
#5=SHAPE_DEFINITION_REPRESENTATION(#28,#29);
#6= (GEOMETRIC_REPRESENTATION_CONTEXT(3)GLOBAL_UNCERTAINTY_ASSIGNED_CONTEXT((#32))GLOBAL_UNIT_ASSIGNED_CONTEXT((#34,#35,#36))REPRESENTATION_CONTEXT('NONE','WORKSPACE'));
#10=STYLED_ITEM('',(#38),#39);
#11=STYLED_ITEM('',(#40),#41);
#12=STYLED_ITEM('',(#42),#43);
#13=STYLED_ITEM('',(#44,#45),#46);
#14=STYLED_ITEM('',(#47),#48);
#15=STYLED_ITEM('',(#49,#50),#51);
#16=STYLED_ITEM('',(#52,#53),#54);
#17=STYLED_ITEM('',(#55),#56);
#18=STYLED_ITEM('',(#57,#58),#59);
#19=STYLED_ITEM('',(#60),#61);
#20=STYLED_ITEM('',(#62,#63),#64);
#21=STYLED_ITEM('',(#65,#66),#67);
#22=STYLED_ITEM('',(#68),#69);
#23=STYLED_ITEM('',(#70,#71),#72);
#24=STYLED_ITEM('',(#73,#74),#75);
#25=APPLICATION_CONTEXT(' ');
#26=PRODUCT_CATEGORY('part','NONE');
#27=PRODUCT_RELATED_PRODUCT_CATEGORY('detail',' ',(#76));
#28=PRODUCT_DEFINITION_SHAPE('NONE','NONE',#77);
#29=ADVANCED_BREP_SHAPE_REPRESENTATION('240[2]',(#46,#78),#6);
#32=UNCERTAINTY_MEASURE_WITH_UNIT(LENGTH_MEASURE(1.0E-006),#34,'','');
#34= (CONVERSION_BASED_UNIT('MILLIMETRE',#81)LENGTH_UNIT()NAMED_UNIT(#84));
#35= (NAMED_UNIT(#86)PLANE_ANGLE_UNIT()SI_UNIT($,.RADIAN.));
#36= (NAMED_UNIT(#86)SOLID_ANGLE_UNIT()SI_UNIT($,.STERADIAN.));
#38=PRESENTATION_STYLE_ASSIGNMENT((#92));
#39=EDGE_CURVE('240[2]',#93,#93,#94,.T.);
#40=PRESENTATION_STYLE_ASSIGNMENT((#95));
#41=EDGE_CURVE('240[2]',#96,#96,#97,.T.);
#42=PRESENTATION_STYLE_ASSIGNMENT((#98));
#43=EDGE_CURVE('240[2]',#99,#99,#100,.T.);
#44=PRESENTATION_STYLE_ASSIGNMENT((#101));
#45=PRESENTATION_STYLE_ASSIGNMENT((#102));
#46=MANIFOLD_SOLID_BREP('240[2]',#103);
#47=PRESENTATION_STYLE_ASSIGNMENT((#104));
#48=EDGE_CURVE('240[2]',#105,#105,#106,.T.);
#49=PRESENTATION_STYLE_ASSIGNMENT((#107));
#50=PRESENTATION_STYLE_ASSIGNMENT((#108));
#51=ADVANCED_FACE('240[2]',(#109,#110),#111,.T.);
#52=PRESENTATION_STYLE_ASSIGNMENT((#112));
#53=PRESENTATION_STYLE_ASSIGNMENT((#113));
#54=ADVANCED_FACE('240[2]',(#114,#115),#116,.T.);
#55=PRESENTATION_STYLE_ASSIGNMENT((#117));
#56=EDGE_CURVE('240[2]',#118,#118,#119,.T.);
#57=PRESENTATION_STYLE_ASSIGNMENT((#120));
#58=PRESENTATION_STYLE_ASSIGNMENT((#121));
#59=ADVANCED_FACE('240[2]',(#122,#123),#124,.T.);
#60=PRESENTATION_STYLE_ASSIGNMENT((#125));
#61=EDGE_CURVE('240[2]',#126,#126,#127,.T.);
#62=PRESENTATION_STYLE_ASSIGNMENT((#128));
#63=PRESENTATION_STYLE_ASSIGNMENT((#129));
#64=ADVANCED_FACE('240[2]',(#130,#131),#132,.T.);
#65=PRESENTATION_STYLE_ASSIGNMENT((#133));
#66=PRESENTATION_STYLE_ASSIGNMENT((#134));
#67=ADVANCED_FACE('240[2]',(#135,#136),#137,.F.);
#68=PRESENTATION_STYLE_ASSIGNMENT((#138));
#69=EDGE_CURVE('240[2]',#139,#139,#140,.T.);
#70=PRESENTATION_STYLE_ASSIGNMENT((#141));
#71=PRESENTATION_STYLE_ASSIGNMENT((#142));
#72=ADVANCED_FACE('240[2]',(#143,#144),#145,.T.);
#73=PRESENTATION_STYLE_ASSIGNMENT((#146));
#74=PRESENTATION_STYLE_ASSIGNMENT((#147));
#75=ADVANCED_FACE('240[2]',(#148,#149),#150,.T.);
#76=PRODUCT('240[2]','240[2]','PART-240[2]-DESC',(#151));
#77=PRODUCT_DEFINITION('NONE','NONE',#152,#2);
#78=AXIS2_PLACEMENT_3D('',#153,#154,#155);
#81=LENGTH_MEASURE_WITH_UNIT(LENGTH_MEASURE(1.0),#156);
#84=DIMENSIONAL_EXPONENTS(1.0,0.0,0.0,0.0,0.0,0.0,0.0);
#86=DIMENSIONAL_EXPONENTS(0.0,0.0,0.0,0.0,0.0,0.0,0.0);
#92=CURVE_STYLE('',#157,POSITIVE_LENGTH_MEASURE(1000.0),#158);
#93=VERTEX_POINT('',#159);
#94=CIRCLE('',#160,5.5);
#95=CURVE_STYLE('',#161,POSITIVE_LENGTH_MEASURE(1000.0),#162);
#96=VERTEX_POINT('',#163);
#97=CIRCLE('',#164,8.0);
#98=CURVE_STYLE('',#165,POSITIVE_LENGTH_MEASURE(1000.0),#166);
#99=VERTEX_POINT('',#167);
#100=CIRCLE('',#168,8.5);
#101=SURFACE_STYLE_USAGE(.BOTH.,#169);
#102=CURVE_STYLE('',#170,POSITIVE_LENGTH_MEASURE(1000.0),#171);
#103=CLOSED_SHELL('',(#75,#59,#51,#72,#54,#64,#67));
#104=CURVE_STYLE('',#172,POSITIVE_LENGTH_MEASURE(1000.0),#173);
#105=VERTEX_POINT('',#174);
#106=CIRCLE('',#175,8.5);
#107=SURFACE_STYLE_USAGE(.BOTH.,#176);
#108=CURVE_STYLE('',#177,POSITIVE_LENGTH_MEASURE(1000.0),#178);
#109=FACE_BOUND('',#179,.T.);
#110=FACE_BOUND('',#180,.T.);
#111=TOROIDAL_SURFACE('',#181,7.6875,0.8125);
#112=SURFACE_STYLE_USAGE(.BOTH.,#182);
#113=CURVE_STYLE('',#183,POSITIVE_LENGTH_MEASURE(1000.0),#184);
#114=FACE_BOUND('',#185,.T.);
#115=FACE_BOUND('',#186,.T.);
#116=CYLINDRICAL_SURFACE('',#187,8.5);
#117=CURVE_STYLE('',#188,POSITIVE_LENGTH_MEASURE(1000.0),#189);
#118=VERTEX_POINT('',#190);
#119=CIRCLE('',#191,8.0);
#120=SURFACE_STYLE_USAGE(.BOTH.,#192);
#121=CURVE_STYLE('',#193,POSITIVE_LENGTH_MEASURE(1000.0),#194);
#122=FACE_BOUND('',#195,.T.);
#123=FACE_BOUND('',#196,.T.);
#124=CYLINDRICAL_SURFACE('',#197,8.0);
#125=CURVE_STYLE('',#198,POSITIVE_LENGTH_MEASURE(1000.0),#199);
#126=VERTEX_POINT('',#200);
#127=CIRCLE('',#201,8.0);
#128=SURFACE_STYLE_USAGE(.BOTH.,#202);
#129=CURVE_STYLE('',#203,POSITIVE_LENGTH_MEASURE(1000.0),#204);
#130=FACE_BOUND('',#205,.T.);
#131=FACE_OUTER_BOUND('',#206,.T.);
#132=PLANE('',#207);
#133=SURFACE_STYLE_USAGE(.BOTH.,#208);
#134=CURVE_STYLE('',#209,POSITIVE_LENGTH_MEASURE(1000.0),#210);
#135=FACE_BOUND('',#211,.T.);
#136=FACE_BOUND('',#212,.T.);
#137=CYLINDRICAL_SURFACE('',#213,5.5);
#138=CURVE_STYLE('',#214,POSITIVE_LENGTH_MEASURE(1000.0),#215);
#139=VERTEX_POINT('',#216);
#140=CIRCLE('',#217,5.5);
#141=SURFACE_STYLE_USAGE(.BOTH.,#218);
#142=CURVE_STYLE('',#219,POSITIVE_LENGTH_MEASURE(1000.0),#220);
#143=FACE_OUTER_BOUND('',#221,.T.);
#144=FACE_BOUND('',#222,.T.);
#145=PLANE('',#223);
#146=SURFACE_STYLE_USAGE(.BOTH.,#224);
#147=CURVE_STYLE('',#225,POSITIVE_LENGTH_MEASURE(1000.0),#226);
#148=FACE_OUTER_BOUND('',#227,.T.);
#149=FACE_BOUND('',#228,.T.);
#150=PLANE('',#229);
#151=PRODUCT_CONTEXT('',#25,'mechanical');
#152=PRODUCT_DEFINITION_FORMATION_WITH_SPECIFIED_SOURCE(' ','NONE',#76,.NOT_KNOWN.);
#153=CARTESIAN_POINT('',(0.0,0.0,0.0));
#154=DIRECTION('',(0.0,0.0,1.0));
#155=DIRECTION('',(1.0,0.0,0.0));
#156= (NAMED_UNIT(#84)LENGTH_UNIT()SI_UNIT(.MILLI.,.METRE.));
#157=DRAUGHTING_PRE_DEFINED_CURVE_FONT('continuous');
#158=COLOUR_RGB('',0.501960813999176,0.501960813999176,0.501960813999176);
#159=CARTESIAN_POINT('',(9.18485099360514E-017,5.5,-1.5));
#160=AXIS2_PLACEMENT_3D('',#231,#232,#233);
#161=DRAUGHTING_PRE_DEFINED_CURVE_FONT('continuous');
#162=COLOUR_RGB('',0.501960813999176,0.501960813999176,0.501960813999176);
#163=CARTESIAN_POINT('',(-2.2655965784226E-015,8.0,37.0));
#164=AXIS2_PLACEMENT_3D('',#234,#235,#236);
#165=DRAUGHTING_PRE_DEFINED_CURVE_FONT('continuous');
#166=COLOUR_RGB('',0.501960813999176,0.501960813999176,0.501960813999176);
#167=CARTESIAN_POINT('',(-1.04770588974666E-031,8.5,1.04094977927525E-015));
#168=AXIS2_PLACEMENT_3D('',#237,#238,#239);
#169=SURFACE_SIDE_STYLE('',(#240));
#170=DRAUGHTING_PRE_DEFINED_CURVE_FONT('continuous');
#171=COLOUR_RGB('',0.501960813999176,0.501960813999176,0.501960813999176);
#172=DRAUGHTING_PRE_DEFINED_CURVE_FONT('continuous');
#173=COLOUR_RGB('',0.501960813999176,0.501960813999176,0.501960813999176);
#174=CARTESIAN_POINT('',(9.18485099360514E-017,8.5,-1.5));
#175=AXIS2_PLACEMENT_3D('',#241,#242,#243);
#176=SURFACE_SIDE_STYLE('',(#244));
#177=DRAUGHTING_PRE_DEFINED_CURVE_FONT('continuous');
#178=COLOUR_RGB('',0.501960813999176,0.501960813999176,0.501960813999176);
#179=EDGE_LOOP('',(#245));
#180=EDGE_LOOP('',(#246));
#181=AXIS2_PLACEMENT_3D('',#247,#248,#249);
#182=SURFACE_SIDE_STYLE('',(#250));
#183=DRAUGHTING_PRE_DEFINED_CURVE_FONT('continuous');
#184=COLOUR_RGB('',0.501960813999176,0.501960813999176,0.501960813999176);
#185=EDGE_LOOP('',(#251));
#186=EDGE_LOOP('',(#252));
#187=AXIS2_PLACEMENT_3D('',#253,#254,#255);
#188=DRAUGHTING_PRE_DEFINED_CURVE_FONT('continuous');
#189=COLOUR_RGB('',0.501960813999176,0.501960813999176,0.501960813999176);
#190=CARTESIAN_POINT('',(-9.18485099360516E-017,8.0,1.5));
#191=AXIS2_PLACEMENT_3D('',#256,#257,#258);
#192=SURFACE_SIDE_STYLE('',(#259));
#193=DRAUGHTING_PRE_DEFINED_CURVE_FONT('continuous');
#194=COLOUR_RGB('',0.501960813999176,0.501960813999176,0.501960813999176);
#195=EDGE_LOOP('',(#260));
#196=EDGE_LOOP('',(#261));
#197=AXIS2_PLACEMENT_3D('',#262,#263,#264);
#198=DRAUGHTING_PRE_DEFINED_CURVE_FONT('continuous');
#199=COLOUR_RGB('',0.501960813999176,0.501960813999176,0.501960813999176);
#200=CARTESIAN_POINT('',(-9.86076131526265E-032,8.0,9.79717439317882E-016));
#201=AXIS2_PLACEMENT_3D('',#265,#266,#267);
#202=SURFACE_SIDE_STYLE('',(#268));
#203=DRAUGHTING_PRE_DEFINED_CURVE_FONT('continuous');
#204=COLOUR_RGB('',0.501960813999176,0.501960813999176,0.501960813999176);
#205=EDGE_LOOP('',(#269));
#206=EDGE_LOOP('',(#270));
#207=AXIS2_PLACEMENT_3D('',#271,#272,#273);
#208=SURFACE_SIDE_STYLE('',(#274));
#209=DRAUGHTING_PRE_DEFINED_CURVE_FONT('continuous');
#210=COLOUR_RGB('',0.501960813999176,0.501960813999176,0.501960813999176);
#211=EDGE_LOOP('',(#275));
#212=EDGE_LOOP('',(#276));
#213=AXIS2_PLACEMENT_3D('',#277,#278,#279);
#214=DRAUGHTING_PRE_DEFINED_CURVE_FONT('continuous');
#215=COLOUR_RGB('',0.501960813999176,0.501960813999176,0.501960813999176);
#216=CARTESIAN_POINT('',(-2.2655965784226E-015,5.5,37.0));
#217=AXIS2_PLACEMENT_3D('',#280,#281,#282);
#218=SURFACE_SIDE_STYLE('',(#283));
#219=DRAUGHTING_PRE_DEFINED_CURVE_FONT('continuous');
#220=COLOUR_RGB('',0.501960813999176,0.501960813999176,0.501960813999176);
#221=EDGE_LOOP('',(#284));
#222=EDGE_LOOP('',(#285));
#223=AXIS2_PLACEMENT_3D('',#286,#287,#288);
#224=SURFACE_SIDE_STYLE('',(#289));
#225=DRAUGHTING_PRE_DEFINED_CURVE_FONT('continuous');
#226=COLOUR_RGB('',0.501960813999176,0.501960813999176,0.501960813999176);
#227=EDGE_LOOP('',(#290));
#228=EDGE_LOOP('',(#291));
#229=AXIS2_PLACEMENT_3D('',#292,#293,#294);
#231=CARTESIAN_POINT('',(9.18485099360515E-017,1.83697019872103E-016,-1.5));
#232=DIRECTION('',(6.12323399573677E-017,1.22464679914735E-016,-1.0));
#233=DIRECTION('',(-1.23259516440783E-032,1.0,1.22464679914735E-016));
#234=CARTESIAN_POINT('',(-2.2655965784226E-015,-4.53119315684521E-015,37.0));
#235=DIRECTION('',(6.12323399573677E-017,1.22464679914735E-016,-1.0));
#236=DIRECTION('',(-1.23259516440783E-032,1.0,1.22464679914735E-016));
#237=CARTESIAN_POINT('',(0.0,0.0,0.0));
#238=DIRECTION('',(6.12323399573676E-017,1.22464679914735E-016,-1.0));
#239=DIRECTION('',(-1.23259516440783E-032,1.0,1.22464679914735E-016));
#240=SURFACE_STYLE_FILL_AREA(#295);
#241=CARTESIAN_POINT('',(9.18485099360515E-017,1.83697019872103E-016,-1.5));
#242=DIRECTION('',(6.12323399573676E-017,1.22464679914735E-016,-1.0));
#243=DIRECTION('',(-1.23259516440783E-032,1.0,1.22464679914735E-016));
#244=SURFACE_STYLE_FILL_AREA(#296);
#245=ORIENTED_EDGE('',*,*,#61,.F.);
#246=ORIENTED_EDGE('',*,*,#56,.T.);
#247=CARTESIAN_POINT('',(-4.59242549680257E-017,-9.18485099360515E-017,0.75));
#248=DIRECTION('',(6.12323399573677E-017,1.22464679914735E-016,-1.0));
#249=DIRECTION('',(-1.0,-4.82715273076902E-033,-6.12323399573677E-017));
#250=SURFACE_STYLE_FILL_AREA(#297);
#251=ORIENTED_EDGE('',*,*,#48,.F.);
#252=ORIENTED_EDGE('',*,*,#43,.T.);
#253=CARTESIAN_POINT('',(4.59242549680257E-017,9.18485099360515E-017,-0.75));
#254=DIRECTION('',(6.12323399573676E-017,1.22464679914735E-016,-1.0));
#255=DIRECTION('',(-1.23259516440783E-032,1.0,1.22464679914735E-016));
#256=CARTESIAN_POINT('',(-9.18485099360515E-017,-1.83697019872103E-016,1.5));
#257=DIRECTION('',(6.12323399573677E-017,1.22464679914735E-016,-1.0));
#258=DIRECTION('',(-1.23259516440783E-032,1.0,1.22464679914735E-016));
#259=SURFACE_STYLE_FILL_AREA(#298);
#260=ORIENTED_EDGE('',*,*,#56,.F.);
#261=ORIENTED_EDGE('',*,*,#41,.T.);
#262=CARTESIAN_POINT('',(-1.17872254417933E-015,-2.35744508835865E-015,19.25));
#263=DIRECTION('',(6.12323399573677E-017,1.22464679914735E-016,-1.0));
#264=DIRECTION('',(-1.23259516440783E-032,1.0,1.22464679914735E-016));
#265=CARTESIAN_POINT('',(0.0,0.0,0.0));
#266=DIRECTION('',(6.12323399573677E-017,1.22464679914735E-016,-1.0));
#267=DIRECTION('',(-1.23259516440783E-032,1.0,1.22464679914735E-016));
#268=SURFACE_STYLE_FILL_AREA(#299);
#269=ORIENTED_EDGE('',*,*,#39,.F.);
#270=ORIENTED_EDGE('',*,*,#48,.T.);
#271=CARTESIAN_POINT('',(9.18485099360514E-017,7.0,-1.5));
#272=DIRECTION('',(6.12323399573677E-017,1.22464679914735E-016,-1.0));
#273=DIRECTION('',(-1.23259516440783E-032,1.0,1.22464679914735E-016));
#274=SURFACE_STYLE_FILL_AREA(#300);
#275=ORIENTED_EDGE('',*,*,#69,.F.);
#276=ORIENTED_EDGE('',*,*,#39,.T.);
#277=CARTESIAN_POINT('',(-1.08687403424328E-015,-2.17374806848655E-015,17.75));
#278=DIRECTION('',(6.12323399573677E-017,1.22464679914735E-016,-1.0));
#279=DIRECTION('',(-1.23259516440783E-032,1.0,1.22464679914735E-016));
#280=CARTESIAN_POINT('',(-2.2655965784226E-015,-4.53119315684521E-015,37.0));
#281=DIRECTION('',(6.12323399573677E-017,1.22464679914735E-016,-1.0));
#282=DIRECTION('',(-1.23259516440783E-032,1.0,1.22464679914735E-016));
#283=SURFACE_STYLE_FILL_AREA(#301);
#284=ORIENTED_EDGE('',*,*,#43,.F.);
#285=ORIENTED_EDGE('',*,*,#61,.T.);
#286=CARTESIAN_POINT('',(-1.01689101063646E-031,8.25,1.01033360929657E-015));
#287=DIRECTION('',(-6.12323399573677E-017,-1.22464679914735E-016,1.0));
#288=DIRECTION('',(1.23259516440783E-032,-1.0,-1.22464679914735E-016));
#289=SURFACE_STYLE_FILL_AREA(#302);
#290=ORIENTED_EDGE('',*,*,#41,.F.);
#291=ORIENTED_EDGE('',*,*,#69,.T.);
#292=CARTESIAN_POINT('',(-2.2655965784226E-015,6.75,37.0));
#293=DIRECTION('',(-6.12323399573677E-017,-1.22464679914735E-016,1.0));
#294=DIRECTION('',(1.23259516440783E-032,-1.0,-1.22464679914735E-016));
#295=FILL_AREA_STYLE('',(#303));
#296=FILL_AREA_STYLE('',(#304));
#297=FILL_AREA_STYLE('',(#305));
#298=FILL_AREA_STYLE('',(#306));
#299=FILL_AREA_STYLE('',(#307));
#300=FILL_AREA_STYLE('',(#308));
#301=FILL_AREA_STYLE('',(#309));
#302=FILL_AREA_STYLE('',(#310));
#303=FILL_AREA_STYLE_COLOUR('',#311);
#304=FILL_AREA_STYLE_COLOUR('',#312);
#305=FILL_AREA_STYLE_COLOUR('',#313);
#306=FILL_AREA_STYLE_COLOUR('',#314);
#307=FILL_AREA_STYLE_COLOUR('',#315);
#308=FILL_AREA_STYLE_COLOUR('',#316);
#309=FILL_AREA_STYLE_COLOUR('',#317);
#310=FILL_AREA_STYLE_COLOUR('',#318);
#311=COLOUR_RGB('',0.501960813999176,0.501960813999176,0.501960813999176);
#312=COLOUR_RGB('',0.501960813999176,0.501960813999176,0.501960813999176);
#313=COLOUR_RGB('',0.501960813999176,0.501960813999176,0.501960813999176);
#314=COLOUR_RGB('',0.501960813999176,0.501960813999176,0.501960813999176);
#315=COLOUR_RGB('',0.501960813999176,0.501960813999176,0.501960813999176);
#316=COLOUR_RGB('',0.501960813999176,0.501960813999176,0.501960813999176);
#317=COLOUR_RGB('',0.501960813999176,0.501960813999176,0.501960813999176);
#318=COLOUR_RGB('',0.501960813999176,0.501960813999176,0.501960813999176);
ENDSEC;
END-ISO-10303-21;
