ISO-10303-21;
HEADER;
FILE_DESCRIPTION((''),'1');
FILE_NAME('T:/00_BIG-HP\X2\FF71FF6FFF8CFF9F\X0\/\X2\670065B0\X0\2025_HP\X2\FF71FF6FFF8CFF9F4E885B9AFF83FF9EFF70FF80\X0\/01_DXF\X2\FF83FF9EFF70FF80\X0\/LINK\X2\7528FF83FF9EFF70FF80\X0\/CK\X2\FF8DFF6FFF84FF9E30FBFF71FF78FF7EFF7BFF98\X0\/10_\X2\4ED54E0A305275284E38FF8AFF9EFF72FF84FF7CFF98FF70FF7DFF9E\X0\/09_\X2\4E38FF8AFF9EFF72FF847528FF7DFF84FF9AFF70FF84FF7AFF9AFF6FFF84\X0\/EC1609.stp','2024-09-10T03:47:08',(''),(''),'Spatial Interop R21 SP3','Kubotek KeyCreator 2011 V10.0.2 (22737)',' ');
FILE_SCHEMA(('automotive_design'));
ENDSEC;
DATA;
#1=MECHANICAL_DESIGN_GEOMETRIC_PRESENTATION_REPRESENTATION(' ',(#10,#11,#12,#13,#14,#15,#16,#17,#18,#19,#20,#21,#22,#23,#24),#6);
#2=PRODUCT_DEFINITION_CONTEXT('',#25,'design');
#3=APPLICATION_PROTOCOL_DEFINITION('INTERNATIONAL STANDARD','automotive_design',1994,#25);
#4=PRODUCT_CATEGORY_RELATIONSHIP('NONE','NONE',#26,#27);
#5=SHAPE_DEFINITION_REPRESENTATION(#28,#29);
#6= (GEOMETRIC_REPRESENTATION_CONTEXT(3)GLOBAL_UNCERTAINTY_ASSIGNED_CONTEXT((#32))GLOBAL_UNIT_ASSIGNED_CONTEXT((#34,#35,#36))REPRESENTATION_CONTEXT('NONE','WORKSPACE'));
#10=STYLED_ITEM('',(#38),#39);
#11=STYLED_ITEM('',(#40),#41);
#12=STYLED_ITEM('',(#42,#43),#44);
#13=STYLED_ITEM('',(#45,#46),#47);
#14=STYLED_ITEM('',(#48),#49);
#15=STYLED_ITEM('',(#50,#51),#52);
#16=STYLED_ITEM('',(#53,#54),#55);
#17=STYLED_ITEM('',(#56),#57);
#18=STYLED_ITEM('',(#58,#59),#60);
#19=STYLED_ITEM('',(#61,#62),#63);
#20=STYLED_ITEM('',(#64,#65),#66);
#21=STYLED_ITEM('',(#67),#68);
#22=STYLED_ITEM('',(#69),#70);
#23=STYLED_ITEM('',(#71),#72);
#24=STYLED_ITEM('',(#73,#74),#75);
#25=APPLICATION_CONTEXT(' ');
#26=PRODUCT_CATEGORY('part','NONE');
#27=PRODUCT_RELATED_PRODUCT_CATEGORY('detail',' ',(#76));
#28=PRODUCT_DEFINITION_SHAPE('NONE','NONE',#77);
#29=ADVANCED_BREP_SHAPE_REPRESENTATION('240[2]',(#55,#78),#6);
#32=UNCERTAINTY_MEASURE_WITH_UNIT(LENGTH_MEASURE(1.0E-006),#34,'','');
#34= (CONVERSION_BASED_UNIT('MILLIMETRE',#81)LENGTH_UNIT()NAMED_UNIT(#84));
#35= (NAMED_UNIT(#86)PLANE_ANGLE_UNIT()SI_UNIT($,.RADIAN.));
#36= (NAMED_UNIT(#86)SOLID_ANGLE_UNIT()SI_UNIT($,.STERADIAN.));
#38=PRESENTATION_STYLE_ASSIGNMENT((#92));
#39=EDGE_CURVE('240[2]',#93,#93,#94,.T.);
#40=PRESENTATION_STYLE_ASSIGNMENT((#95));
#41=EDGE_CURVE('240[2]',#96,#96,#97,.T.);
#42=PRESENTATION_STYLE_ASSIGNMENT((#98));
#43=PRESENTATION_STYLE_ASSIGNMENT((#99));
#44=ADVANCED_FACE('240[2]',(#100,#101),#102,.T.);
#45=PRESENTATION_STYLE_ASSIGNMENT((#103));
#46=PRESENTATION_STYLE_ASSIGNMENT((#104));
#47=ADVANCED_FACE('240[2]',(#105,#106),#107,.T.);
#48=PRESENTATION_STYLE_ASSIGNMENT((#108));
#49=EDGE_CURVE('240[2]',#109,#109,#110,.T.);
#50=PRESENTATION_STYLE_ASSIGNMENT((#111));
#51=PRESENTATION_STYLE_ASSIGNMENT((#112));
#52=ADVANCED_FACE('240[2]',(#113,#114),#115,.T.);
#53=PRESENTATION_STYLE_ASSIGNMENT((#116));
#54=PRESENTATION_STYLE_ASSIGNMENT((#117));
#55=MANIFOLD_SOLID_BREP('240[2]',#118);
#56=PRESENTATION_STYLE_ASSIGNMENT((#119));
#57=EDGE_CURVE('240[2]',#120,#120,#121,.T.);
#58=PRESENTATION_STYLE_ASSIGNMENT((#122));
#59=PRESENTATION_STYLE_ASSIGNMENT((#123));
#60=ADVANCED_FACE('240[2]',(#124,#125),#126,.T.);
#61=PRESENTATION_STYLE_ASSIGNMENT((#127));
#62=PRESENTATION_STYLE_ASSIGNMENT((#128));
#63=ADVANCED_FACE('240[2]',(#129,#130),#131,.T.);
#64=PRESENTATION_STYLE_ASSIGNMENT((#132));
#65=PRESENTATION_STYLE_ASSIGNMENT((#133));
#66=ADVANCED_FACE('240[2]',(#134,#135),#136,.T.);
#67=PRESENTATION_STYLE_ASSIGNMENT((#137));
#68=EDGE_CURVE('240[2]',#138,#138,#139,.T.);
#69=PRESENTATION_STYLE_ASSIGNMENT((#140));
#70=EDGE_CURVE('240[2]',#141,#141,#142,.T.);
#71=PRESENTATION_STYLE_ASSIGNMENT((#143));
#72=EDGE_CURVE('240[2]',#144,#144,#145,.T.);
#73=PRESENTATION_STYLE_ASSIGNMENT((#146));
#74=PRESENTATION_STYLE_ASSIGNMENT((#147));
#75=ADVANCED_FACE('240[2]',(#148,#149),#150,.F.);
#76=PRODUCT('240[2]','240[2]','PART-240[2]-DESC',(#151));
#77=PRODUCT_DEFINITION('NONE','NONE',#152,#2);
#78=AXIS2_PLACEMENT_3D('',#153,#154,#155);
#81=LENGTH_MEASURE_WITH_UNIT(LENGTH_MEASURE(1.0),#156);
#84=DIMENSIONAL_EXPONENTS(1.0,0.0,0.0,0.0,0.0,0.0,0.0);
#86=DIMENSIONAL_EXPONENTS(0.0,0.0,0.0,0.0,0.0,0.0,0.0);
#92=CURVE_STYLE('',#157,POSITIVE_LENGTH_MEASURE(1000.0),#158);
#93=VERTEX_POINT('',#159);
#94=CIRCLE('',#160,4.5);
#95=CURVE_STYLE('',#161,POSITIVE_LENGTH_MEASURE(1000.0),#162);
#96=VERTEX_POINT('',#163);
#97=CIRCLE('',#164,4.5);
#98=SURFACE_STYLE_USAGE(.BOTH.,#165);
#99=CURVE_STYLE('',#166,POSITIVE_LENGTH_MEASURE(1000.0),#167);
#100=FACE_BOUND('',#168,.T.);
#101=FACE_BOUND('',#169,.T.);
#102=CYLINDRICAL_SURFACE('',#170,8.5);
#103=SURFACE_STYLE_USAGE(.BOTH.,#171);
#104=CURVE_STYLE('',#172,POSITIVE_LENGTH_MEASURE(1000.0),#173);
#105=FACE_BOUND('',#174,.T.);
#106=FACE_OUTER_BOUND('',#175,.T.);
#107=PLANE('',#176);
#108=CURVE_STYLE('',#177,POSITIVE_LENGTH_MEASURE(1000.0),#178);
#109=VERTEX_POINT('',#179);
#110=CIRCLE('',#180,8.5);
#111=SURFACE_STYLE_USAGE(.BOTH.,#181);
#112=CURVE_STYLE('',#182,POSITIVE_LENGTH_MEASURE(1000.0),#183);
#113=FACE_BOUND('',#184,.T.);
#114=FACE_BOUND('',#185,.T.);
#115=CYLINDRICAL_SURFACE('',#186,8.0);
#116=SURFACE_STYLE_USAGE(.BOTH.,#187);
#117=CURVE_STYLE('',#188,POSITIVE_LENGTH_MEASURE(1000.0),#189);
#118=CLOSED_SHELL('',(#60,#52,#66,#63,#44,#47,#75));
#119=CURVE_STYLE('',#190,POSITIVE_LENGTH_MEASURE(1000.0),#191);
#120=VERTEX_POINT('',#192);
#121=CIRCLE('',#193,8.0);
#122=SURFACE_STYLE_USAGE(.BOTH.,#194);
#123=CURVE_STYLE('',#195,POSITIVE_LENGTH_MEASURE(1000.0),#196);
#124=FACE_OUTER_BOUND('',#197,.T.);
#125=FACE_BOUND('',#198,.T.);
#126=PLANE('',#199);
#127=SURFACE_STYLE_USAGE(.BOTH.,#200);
#128=CURVE_STYLE('',#201,POSITIVE_LENGTH_MEASURE(1000.0),#202);
#129=FACE_OUTER_BOUND('',#203,.T.);
#130=FACE_BOUND('',#204,.T.);
#131=PLANE('',#205);
#132=SURFACE_STYLE_USAGE(.BOTH.,#206);
#133=CURVE_STYLE('',#207,POSITIVE_LENGTH_MEASURE(1000.0),#208);
#134=FACE_BOUND('',#209,.T.);
#135=FACE_BOUND('',#210,.T.);
#136=TOROIDAL_SURFACE('',#211,7.6875,0.8125);
#137=CURVE_STYLE('',#212,POSITIVE_LENGTH_MEASURE(1000.0),#213);
#138=VERTEX_POINT('',#214);
#139=CIRCLE('',#215,8.5);
#140=CURVE_STYLE('',#216,POSITIVE_LENGTH_MEASURE(1000.0),#217);
#141=VERTEX_POINT('',#218);
#142=CIRCLE('',#219,8.0);
#143=CURVE_STYLE('',#220,POSITIVE_LENGTH_MEASURE(1000.0),#221);
#144=VERTEX_POINT('',#222);
#145=CIRCLE('',#223,8.0);
#146=SURFACE_STYLE_USAGE(.BOTH.,#224);
#147=CURVE_STYLE('',#225,POSITIVE_LENGTH_MEASURE(1000.0),#226);
#148=FACE_BOUND('',#227,.T.);
#149=FACE_BOUND('',#228,.T.);
#150=CYLINDRICAL_SURFACE('',#229,4.5);
#151=PRODUCT_CONTEXT('',#25,'mechanical');
#152=PRODUCT_DEFINITION_FORMATION_WITH_SPECIFIED_SOURCE(' ','NONE',#76,.NOT_KNOWN.);
#153=CARTESIAN_POINT('',(0.0,0.0,0.0));
#154=DIRECTION('',(0.0,0.0,1.0));
#155=DIRECTION('',(1.0,0.0,0.0));
#156= (NAMED_UNIT(#84)LENGTH_UNIT()SI_UNIT(.MILLI.,.METRE.));
#157=DRAUGHTING_PRE_DEFINED_CURVE_FONT('continuous');
#158=COLOUR_RGB('',0.501960813999176,0.501960813999176,0.501960813999176);
#159=CARTESIAN_POINT('',(-2.2655965784226E-015,4.5,37.0));
#160=AXIS2_PLACEMENT_3D('',#231,#232,#233);
#161=DRAUGHTING_PRE_DEFINED_CURVE_FONT('continuous');
#162=COLOUR_RGB('',0.501960813999176,0.501960813999176,0.501960813999176);
#163=CARTESIAN_POINT('',(9.18485099360514E-017,4.5,-1.5));
#164=AXIS2_PLACEMENT_3D('',#234,#235,#236);
#165=SURFACE_SIDE_STYLE('',(#237));
#166=DRAUGHTING_PRE_DEFINED_CURVE_FONT('continuous');
#167=COLOUR_RGB('',0.501960813999176,0.501960813999176,0.501960813999176);
#168=EDGE_LOOP('',(#238));
#169=EDGE_LOOP('',(#239));
#170=AXIS2_PLACEMENT_3D('',#240,#241,#242);
#171=SURFACE_SIDE_STYLE('',(#243));
#172=DRAUGHTING_PRE_DEFINED_CURVE_FONT('continuous');
#173=COLOUR_RGB('',0.501960813999176,0.501960813999176,0.501960813999176);
#174=EDGE_LOOP('',(#244));
#175=EDGE_LOOP('',(#245));
#176=AXIS2_PLACEMENT_3D('',#246,#247,#248);
#177=DRAUGHTING_PRE_DEFINED_CURVE_FONT('continuous');
#178=COLOUR_RGB('',0.501960813999176,0.501960813999176,0.501960813999176);
#179=CARTESIAN_POINT('',(-1.04770588974666E-031,8.5,1.04094977927525E-015));
#180=AXIS2_PLACEMENT_3D('',#249,#250,#251);
#181=SURFACE_SIDE_STYLE('',(#252));
#182=DRAUGHTING_PRE_DEFINED_CURVE_FONT('continuous');
#183=COLOUR_RGB('',0.501960813999176,0.501960813999176,0.501960813999176);
#184=EDGE_LOOP('',(#253));
#185=EDGE_LOOP('',(#254));
#186=AXIS2_PLACEMENT_3D('',#255,#256,#257);
#187=SURFACE_SIDE_STYLE('',(#258));
#188=DRAUGHTING_PRE_DEFINED_CURVE_FONT('continuous');
#189=COLOUR_RGB('',0.501960813999176,0.501960813999176,0.501960813999176);
#190=DRAUGHTING_PRE_DEFINED_CURVE_FONT('continuous');
#191=COLOUR_RGB('',0.501960813999176,0.501960813999176,0.501960813999176);
#192=CARTESIAN_POINT('',(-2.2655965784226E-015,8.0,37.0));
#193=AXIS2_PLACEMENT_3D('',#259,#260,#261);
#194=SURFACE_SIDE_STYLE('',(#262));
#195=DRAUGHTING_PRE_DEFINED_CURVE_FONT('continuous');
#196=COLOUR_RGB('',0.501960813999176,0.501960813999176,0.501960813999176);
#197=EDGE_LOOP('',(#263));
#198=EDGE_LOOP('',(#264));
#199=AXIS2_PLACEMENT_3D('',#265,#266,#267);
#200=SURFACE_SIDE_STYLE('',(#268));
#201=DRAUGHTING_PRE_DEFINED_CURVE_FONT('continuous');
#202=COLOUR_RGB('',0.501960813999176,0.501960813999176,0.501960813999176);
#203=EDGE_LOOP('',(#269));
#204=EDGE_LOOP('',(#270));
#205=AXIS2_PLACEMENT_3D('',#271,#272,#273);
#206=SURFACE_SIDE_STYLE('',(#274));
#207=DRAUGHTING_PRE_DEFINED_CURVE_FONT('continuous');
#208=COLOUR_RGB('',0.501960813999176,0.501960813999176,0.501960813999176);
#209=EDGE_LOOP('',(#275));
#210=EDGE_LOOP('',(#276));
#211=AXIS2_PLACEMENT_3D('',#277,#278,#279);
#212=DRAUGHTING_PRE_DEFINED_CURVE_FONT('continuous');
#213=COLOUR_RGB('',0.501960813999176,0.501960813999176,0.501960813999176);
#214=CARTESIAN_POINT('',(9.18485099360514E-017,8.5,-1.5));
#215=AXIS2_PLACEMENT_3D('',#280,#281,#282);
#216=DRAUGHTING_PRE_DEFINED_CURVE_FONT('continuous');
#217=COLOUR_RGB('',0.501960813999176,0.501960813999176,0.501960813999176);
#218=CARTESIAN_POINT('',(-9.18485099360516E-017,8.0,1.5));
#219=AXIS2_PLACEMENT_3D('',#283,#284,#285);
#220=DRAUGHTING_PRE_DEFINED_CURVE_FONT('continuous');
#221=COLOUR_RGB('',0.501960813999176,0.501960813999176,0.501960813999176);
#222=CARTESIAN_POINT('',(-9.86076131526265E-032,8.0,9.79717439317882E-016));
#223=AXIS2_PLACEMENT_3D('',#286,#287,#288);
#224=SURFACE_SIDE_STYLE('',(#289));
#225=DRAUGHTING_PRE_DEFINED_CURVE_FONT('continuous');
#226=COLOUR_RGB('',0.501960813999176,0.501960813999176,0.501960813999176);
#227=EDGE_LOOP('',(#290));
#228=EDGE_LOOP('',(#291));
#229=AXIS2_PLACEMENT_3D('',#292,#293,#294);
#231=CARTESIAN_POINT('',(-2.2655965784226E-015,-4.53119315684521E-015,37.0));
#232=DIRECTION('',(6.12323399573677E-017,1.22464679914735E-016,-1.0));
#233=DIRECTION('',(-1.23259516440783E-032,1.0,1.22464679914735E-016));
#234=CARTESIAN_POINT('',(9.18485099360515E-017,1.83697019872103E-016,-1.5));
#235=DIRECTION('',(6.12323399573677E-017,1.22464679914735E-016,-1.0));
#236=DIRECTION('',(-1.23259516440783E-032,1.0,1.22464679914735E-016));
#237=SURFACE_STYLE_FILL_AREA(#295);
#238=ORIENTED_EDGE('',*,*,#68,.F.);
#239=ORIENTED_EDGE('',*,*,#49,.T.);
#240=CARTESIAN_POINT('',(4.59242549680257E-017,9.18485099360515E-017,-0.75));
#241=DIRECTION('',(6.12323399573676E-017,1.22464679914735E-016,-1.0));
#242=DIRECTION('',(-1.23259516440783E-032,1.0,1.22464679914735E-016));
#243=SURFACE_STYLE_FILL_AREA(#296);
#244=ORIENTED_EDGE('',*,*,#41,.F.);
#245=ORIENTED_EDGE('',*,*,#68,.T.);
#246=CARTESIAN_POINT('',(9.18485099360514E-017,6.5,-1.5));
#247=DIRECTION('',(6.12323399573677E-017,1.22464679914735E-016,-1.0));
#248=DIRECTION('',(-1.23259516440783E-032,1.0,1.22464679914735E-016));
#249=CARTESIAN_POINT('',(0.0,0.0,0.0));
#250=DIRECTION('',(6.12323399573676E-017,1.22464679914735E-016,-1.0));
#251=DIRECTION('',(-1.23259516440783E-032,1.0,1.22464679914735E-016));
#252=SURFACE_STYLE_FILL_AREA(#297);
#253=ORIENTED_EDGE('',*,*,#70,.F.);
#254=ORIENTED_EDGE('',*,*,#57,.T.);
#255=CARTESIAN_POINT('',(-1.17872254417933E-015,-2.35744508835865E-015,19.25));
#256=DIRECTION('',(6.12323399573677E-017,1.22464679914735E-016,-1.0));
#257=DIRECTION('',(-1.23259516440783E-032,1.0,1.22464679914735E-016));
#258=SURFACE_STYLE_FILL_AREA(#298);
#259=CARTESIAN_POINT('',(-2.2655965784226E-015,-4.53119315684521E-015,37.0));
#260=DIRECTION('',(6.12323399573677E-017,1.22464679914735E-016,-1.0));
#261=DIRECTION('',(-1.23259516440783E-032,1.0,1.22464679914735E-016));
#262=SURFACE_STYLE_FILL_AREA(#299);
#263=ORIENTED_EDGE('',*,*,#57,.F.);
#264=ORIENTED_EDGE('',*,*,#39,.T.);
#265=CARTESIAN_POINT('',(-2.2655965784226E-015,6.25,37.0));
#266=DIRECTION('',(-6.12323399573677E-017,-1.22464679914735E-016,1.0));
#267=DIRECTION('',(1.23259516440783E-032,-1.0,-1.22464679914735E-016));
#268=SURFACE_STYLE_FILL_AREA(#300);
#269=ORIENTED_EDGE('',*,*,#49,.F.);
#270=ORIENTED_EDGE('',*,*,#72,.T.);
#271=CARTESIAN_POINT('',(-1.01689101063646E-031,8.25,1.01033360929657E-015));
#272=DIRECTION('',(-6.12323399573677E-017,-1.22464679914735E-016,1.0));
#273=DIRECTION('',(1.23259516440783E-032,-1.0,-1.22464679914735E-016));
#274=SURFACE_STYLE_FILL_AREA(#301);
#275=ORIENTED_EDGE('',*,*,#72,.F.);
#276=ORIENTED_EDGE('',*,*,#70,.T.);
#277=CARTESIAN_POINT('',(-4.59242549680257E-017,-9.18485099360515E-017,0.75));
#278=DIRECTION('',(6.12323399573677E-017,1.22464679914735E-016,-1.0));
#279=DIRECTION('',(-1.0,-4.82715273076902E-033,-6.12323399573677E-017));
#280=CARTESIAN_POINT('',(9.18485099360515E-017,1.83697019872103E-016,-1.5));
#281=DIRECTION('',(6.12323399573676E-017,1.22464679914735E-016,-1.0));
#282=DIRECTION('',(-1.23259516440783E-032,1.0,1.22464679914735E-016));
#283=CARTESIAN_POINT('',(-9.18485099360515E-017,-1.83697019872103E-016,1.5));
#284=DIRECTION('',(6.12323399573677E-017,1.22464679914735E-016,-1.0));
#285=DIRECTION('',(-1.23259516440783E-032,1.0,1.22464679914735E-016));
#286=CARTESIAN_POINT('',(0.0,0.0,0.0));
#287=DIRECTION('',(6.12323399573677E-017,1.22464679914735E-016,-1.0));
#288=DIRECTION('',(-1.23259516440783E-032,1.0,1.22464679914735E-016));
#289=SURFACE_STYLE_FILL_AREA(#302);
#290=ORIENTED_EDGE('',*,*,#39,.F.);
#291=ORIENTED_EDGE('',*,*,#41,.T.);
#292=CARTESIAN_POINT('',(-1.08687403424328E-015,-2.17374806848655E-015,17.75));
#293=DIRECTION('',(6.12323399573677E-017,1.22464679914735E-016,-1.0));
#294=DIRECTION('',(-1.23259516440783E-032,1.0,1.22464679914735E-016));
#295=FILL_AREA_STYLE('',(#303));
#296=FILL_AREA_STYLE('',(#304));
#297=FILL_AREA_STYLE('',(#305));
#298=FILL_AREA_STYLE('',(#306));
#299=FILL_AREA_STYLE('',(#307));
#300=FILL_AREA_STYLE('',(#308));
#301=FILL_AREA_STYLE('',(#309));
#302=FILL_AREA_STYLE('',(#310));
#303=FILL_AREA_STYLE_COLOUR('',#311);
#304=FILL_AREA_STYLE_COLOUR('',#312);
#305=FILL_AREA_STYLE_COLOUR('',#313);
#306=FILL_AREA_STYLE_COLOUR('',#314);
#307=FILL_AREA_STYLE_COLOUR('',#315);
#308=FILL_AREA_STYLE_COLOUR('',#316);
#309=FILL_AREA_STYLE_COLOUR('',#317);
#310=FILL_AREA_STYLE_COLOUR('',#318);
#311=COLOUR_RGB('',0.501960813999176,0.501960813999176,0.501960813999176);
#312=COLOUR_RGB('',0.501960813999176,0.501960813999176,0.501960813999176);
#313=COLOUR_RGB('',0.501960813999176,0.501960813999176,0.501960813999176);
#314=COLOUR_RGB('',0.501960813999176,0.501960813999176,0.501960813999176);
#315=COLOUR_RGB('',0.501960813999176,0.501960813999176,0.501960813999176);
#316=COLOUR_RGB('',0.501960813999176,0.501960813999176,0.501960813999176);
#317=COLOUR_RGB('',0.501960813999176,0.501960813999176,0.501960813999176);
#318=COLOUR_RGB('',0.501960813999176,0.501960813999176,0.501960813999176);
ENDSEC;
END-ISO-10303-21;
