ISO-10303-21;
HEADER;
FILE_DESCRIPTION((''),'1');
FILE_NAME('T:/00_BIG-HP\X2\FF71FF6FFF8CFF9F\X0\/\X2\670065B0\X0\2025_HP\X2\FF71FF6FFF8CFF9F4E885B9AFF83FF9EFF70FF80\X0\/01_DXF\X2\FF83FF9EFF70FF80\X0\/LINK\X2\7528FF83FF9EFF70FF80\X0\/CK\X2\FF8DFF6FFF84FF9E30FBFF71FF78FF7EFF7BFF98\X0\/10_\X2\4ED54E0A305275284E38FF8AFF9EFF72FF84FF7CFF98FF70FF7DFF9E\X0\/09_\X2\4E38FF8AFF9EFF72FF847528FF7DFF84FF9AFF70FF84FF7AFF9AFF6FFF84\X0\/EC1607.stp','2024-09-10T02:20:17',(''),(''),'Spatial Interop R21 SP3','Kubotek KeyCreator 2011 V10.0.2 (22737)',' ');
FILE_SCHEMA(('automotive_design'));
ENDSEC;
DATA;
#1=MECHANICAL_DESIGN_GEOMETRIC_PRESENTATION_REPRESENTATION(' ',(#10,#11,#12,#13,#14,#15,#16,#17,#18,#19,#20,#21,#22,#23,#24),#6);
#2=PRODUCT_DEFINITION_CONTEXT('',#25,'design');
#3=APPLICATION_PROTOCOL_DEFINITION('INTERNATIONAL STANDARD','automotive_design',1994,#25);
#4=PRODUCT_CATEGORY_RELATIONSHIP('NONE','NONE',#26,#27);
#5=SHAPE_DEFINITION_REPRESENTATION(#28,#29);
#6= (GEOMETRIC_REPRESENTATION_CONTEXT(3)GLOBAL_UNCERTAINTY_ASSIGNED_CONTEXT((#32))GLOBAL_UNIT_ASSIGNED_CONTEXT((#34,#35,#36))REPRESENTATION_CONTEXT('NONE','WORKSPACE'));
#10=STYLED_ITEM('',(#38,#39),#40);
#11=STYLED_ITEM('',(#41),#42);
#12=STYLED_ITEM('',(#43),#44);
#13=STYLED_ITEM('',(#45,#46),#47);
#14=STYLED_ITEM('',(#48),#49);
#15=STYLED_ITEM('',(#50,#51),#52);
#16=STYLED_ITEM('',(#53,#54),#55);
#17=STYLED_ITEM('',(#56),#57);
#18=STYLED_ITEM('',(#58,#59),#60);
#19=STYLED_ITEM('',(#61,#62),#63);
#20=STYLED_ITEM('',(#64),#65);
#21=STYLED_ITEM('',(#66,#67),#68);
#22=STYLED_ITEM('',(#69),#70);
#23=STYLED_ITEM('',(#71,#72),#73);
#24=STYLED_ITEM('',(#74),#75);
#25=APPLICATION_CONTEXT(' ');
#26=PRODUCT_CATEGORY('part','NONE');
#27=PRODUCT_RELATED_PRODUCT_CATEGORY('detail',' ',(#76));
#28=PRODUCT_DEFINITION_SHAPE('NONE','NONE',#77);
#29=ADVANCED_BREP_SHAPE_REPRESENTATION('240[2]',(#73,#78),#6);
#32=UNCERTAINTY_MEASURE_WITH_UNIT(LENGTH_MEASURE(1.0E-006),#34,'','');
#34= (CONVERSION_BASED_UNIT('MILLIMETRE',#81)LENGTH_UNIT()NAMED_UNIT(#84));
#35= (NAMED_UNIT(#86)PLANE_ANGLE_UNIT()SI_UNIT($,.RADIAN.));
#36= (NAMED_UNIT(#86)SOLID_ANGLE_UNIT()SI_UNIT($,.STERADIAN.));
#38=PRESENTATION_STYLE_ASSIGNMENT((#92));
#39=PRESENTATION_STYLE_ASSIGNMENT((#93));
#40=ADVANCED_FACE('240[2]',(#94,#95),#96,.T.);
#41=PRESENTATION_STYLE_ASSIGNMENT((#97));
#42=EDGE_CURVE('240[2]',#98,#98,#99,.T.);
#43=PRESENTATION_STYLE_ASSIGNMENT((#100));
#44=EDGE_CURVE('240[2]',#101,#101,#102,.T.);
#45=PRESENTATION_STYLE_ASSIGNMENT((#103));
#46=PRESENTATION_STYLE_ASSIGNMENT((#104));
#47=ADVANCED_FACE('240[2]',(#105,#106),#107,.T.);
#48=PRESENTATION_STYLE_ASSIGNMENT((#108));
#49=EDGE_CURVE('240[2]',#109,#109,#110,.T.);
#50=PRESENTATION_STYLE_ASSIGNMENT((#111));
#51=PRESENTATION_STYLE_ASSIGNMENT((#112));
#52=ADVANCED_FACE('240[2]',(#113,#114),#115,.T.);
#53=PRESENTATION_STYLE_ASSIGNMENT((#116));
#54=PRESENTATION_STYLE_ASSIGNMENT((#117));
#55=ADVANCED_FACE('240[2]',(#118,#119),#120,.F.);
#56=PRESENTATION_STYLE_ASSIGNMENT((#121));
#57=EDGE_CURVE('240[2]',#122,#122,#123,.T.);
#58=PRESENTATION_STYLE_ASSIGNMENT((#124));
#59=PRESENTATION_STYLE_ASSIGNMENT((#125));
#60=ADVANCED_FACE('240[2]',(#126,#127),#128,.T.);
#61=PRESENTATION_STYLE_ASSIGNMENT((#129));
#62=PRESENTATION_STYLE_ASSIGNMENT((#130));
#63=ADVANCED_FACE('240[2]',(#131,#132),#133,.T.);
#64=PRESENTATION_STYLE_ASSIGNMENT((#134));
#65=EDGE_CURVE('240[2]',#135,#135,#136,.T.);
#66=PRESENTATION_STYLE_ASSIGNMENT((#137));
#67=PRESENTATION_STYLE_ASSIGNMENT((#138));
#68=ADVANCED_FACE('240[2]',(#139,#140),#141,.T.);
#69=PRESENTATION_STYLE_ASSIGNMENT((#142));
#70=EDGE_CURVE('240[2]',#143,#143,#144,.T.);
#71=PRESENTATION_STYLE_ASSIGNMENT((#145));
#72=PRESENTATION_STYLE_ASSIGNMENT((#146));
#73=MANIFOLD_SOLID_BREP('240[2]',#147);
#74=PRESENTATION_STYLE_ASSIGNMENT((#148));
#75=EDGE_CURVE('240[2]',#149,#149,#150,.T.);
#76=PRODUCT('240[2]','240[2]','PART-240[2]-DESC',(#151));
#77=PRODUCT_DEFINITION('NONE','NONE',#152,#2);
#78=AXIS2_PLACEMENT_3D('',#153,#154,#155);
#81=LENGTH_MEASURE_WITH_UNIT(LENGTH_MEASURE(1.0),#156);
#84=DIMENSIONAL_EXPONENTS(1.0,0.0,0.0,0.0,0.0,0.0,0.0);
#86=DIMENSIONAL_EXPONENTS(0.0,0.0,0.0,0.0,0.0,0.0,0.0);
#92=SURFACE_STYLE_USAGE(.BOTH.,#157);
#93=CURVE_STYLE('',#158,POSITIVE_LENGTH_MEASURE(1000.0),#159);
#94=FACE_OUTER_BOUND('',#160,.T.);
#95=FACE_BOUND('',#161,.T.);
#96=PLANE('',#162);
#97=CURVE_STYLE('',#163,POSITIVE_LENGTH_MEASURE(1000.0),#164);
#98=VERTEX_POINT('',#165);
#99=CIRCLE('',#166,8.5);
#100=CURVE_STYLE('',#167,POSITIVE_LENGTH_MEASURE(1000.0),#168);
#101=VERTEX_POINT('',#169);
#102=CIRCLE('',#170,3.5);
#103=SURFACE_STYLE_USAGE(.BOTH.,#171);
#104=CURVE_STYLE('',#172,POSITIVE_LENGTH_MEASURE(1000.0),#173);
#105=FACE_OUTER_BOUND('',#174,.T.);
#106=FACE_BOUND('',#175,.T.);
#107=PLANE('',#176);
#108=CURVE_STYLE('',#177,POSITIVE_LENGTH_MEASURE(1000.0),#178);
#109=VERTEX_POINT('',#179);
#110=CIRCLE('',#180,8.5);
#111=SURFACE_STYLE_USAGE(.BOTH.,#181);
#112=CURVE_STYLE('',#182,POSITIVE_LENGTH_MEASURE(1000.0),#183);
#113=FACE_BOUND('',#184,.T.);
#114=FACE_OUTER_BOUND('',#185,.T.);
#115=PLANE('',#186);
#116=SURFACE_STYLE_USAGE(.BOTH.,#187);
#117=CURVE_STYLE('',#188,POSITIVE_LENGTH_MEASURE(1000.0),#189);
#118=FACE_BOUND('',#190,.T.);
#119=FACE_BOUND('',#191,.T.);
#120=CYLINDRICAL_SURFACE('',#192,3.5);
#121=CURVE_STYLE('',#193,POSITIVE_LENGTH_MEASURE(1000.0),#194);
#122=VERTEX_POINT('',#195);
#123=CIRCLE('',#196,3.5);
#124=SURFACE_STYLE_USAGE(.BOTH.,#197);
#125=CURVE_STYLE('',#198,POSITIVE_LENGTH_MEASURE(1000.0),#199);
#126=FACE_BOUND('',#200,.T.);
#127=FACE_BOUND('',#201,.T.);
#128=CYLINDRICAL_SURFACE('',#202,8.5);
#129=SURFACE_STYLE_USAGE(.BOTH.,#203);
#130=CURVE_STYLE('',#204,POSITIVE_LENGTH_MEASURE(1000.0),#205);
#131=FACE_BOUND('',#206,.T.);
#132=FACE_BOUND('',#207,.T.);
#133=TOROIDAL_SURFACE('',#208,7.6875,0.8125);
#134=CURVE_STYLE('',#209,POSITIVE_LENGTH_MEASURE(1000.0),#210);
#135=VERTEX_POINT('',#211);
#136=CIRCLE('',#212,8.0);
#137=SURFACE_STYLE_USAGE(.BOTH.,#213);
#138=CURVE_STYLE('',#214,POSITIVE_LENGTH_MEASURE(1000.0),#215);
#139=FACE_BOUND('',#216,.T.);
#140=FACE_BOUND('',#217,.T.);
#141=CYLINDRICAL_SURFACE('',#218,8.0);
#142=CURVE_STYLE('',#219,POSITIVE_LENGTH_MEASURE(1000.0),#220);
#143=VERTEX_POINT('',#221);
#144=CIRCLE('',#222,8.0);
#145=SURFACE_STYLE_USAGE(.BOTH.,#223);
#146=CURVE_STYLE('',#224,POSITIVE_LENGTH_MEASURE(1000.0),#225);
#147=CLOSED_SHELL('',(#40,#68,#63,#47,#60,#52,#55));
#148=CURVE_STYLE('',#226,POSITIVE_LENGTH_MEASURE(1000.0),#227);
#149=VERTEX_POINT('',#228);
#150=CIRCLE('',#229,8.0);
#151=PRODUCT_CONTEXT('',#25,'mechanical');
#152=PRODUCT_DEFINITION_FORMATION_WITH_SPECIFIED_SOURCE(' ','NONE',#76,.NOT_KNOWN.);
#153=CARTESIAN_POINT('',(0.0,0.0,0.0));
#154=DIRECTION('',(0.0,0.0,1.0));
#155=DIRECTION('',(1.0,0.0,0.0));
#156= (NAMED_UNIT(#84)LENGTH_UNIT()SI_UNIT(.MILLI.,.METRE.));
#157=SURFACE_SIDE_STYLE('',(#231));
#158=DRAUGHTING_PRE_DEFINED_CURVE_FONT('continuous');
#159=COLOUR_RGB('',0.501960813999176,0.501960813999176,0.501960813999176);
#160=EDGE_LOOP('',(#232));
#161=EDGE_LOOP('',(#233));
#162=AXIS2_PLACEMENT_3D('',#234,#235,#236);
#163=DRAUGHTING_PRE_DEFINED_CURVE_FONT('continuous');
#164=COLOUR_RGB('',0.501960813999176,0.501960813999176,0.501960813999176);
#165=CARTESIAN_POINT('',(-1.04770588974666E-031,8.5,1.04094977927525E-015));
#166=AXIS2_PLACEMENT_3D('',#237,#238,#239);
#167=DRAUGHTING_PRE_DEFINED_CURVE_FONT('continuous');
#168=COLOUR_RGB('',0.501960813999176,0.501960813999176,0.501960813999176);
#169=CARTESIAN_POINT('',(9.18485099360514E-017,3.5,-1.5));
#170=AXIS2_PLACEMENT_3D('',#240,#241,#242);
#171=SURFACE_SIDE_STYLE('',(#243));
#172=DRAUGHTING_PRE_DEFINED_CURVE_FONT('continuous');
#173=COLOUR_RGB('',0.501960813999176,0.501960813999176,0.501960813999176);
#174=EDGE_LOOP('',(#244));
#175=EDGE_LOOP('',(#245));
#176=AXIS2_PLACEMENT_3D('',#246,#247,#248);
#177=DRAUGHTING_PRE_DEFINED_CURVE_FONT('continuous');
#178=COLOUR_RGB('',0.501960813999176,0.501960813999176,0.501960813999176);
#179=CARTESIAN_POINT('',(9.18485099360514E-017,8.5,-1.5));
#180=AXIS2_PLACEMENT_3D('',#249,#250,#251);
#181=SURFACE_SIDE_STYLE('',(#252));
#182=DRAUGHTING_PRE_DEFINED_CURVE_FONT('continuous');
#183=COLOUR_RGB('',0.501960813999176,0.501960813999176,0.501960813999176);
#184=EDGE_LOOP('',(#253));
#185=EDGE_LOOP('',(#254));
#186=AXIS2_PLACEMENT_3D('',#255,#256,#257);
#187=SURFACE_SIDE_STYLE('',(#258));
#188=DRAUGHTING_PRE_DEFINED_CURVE_FONT('continuous');
#189=COLOUR_RGB('',0.501960813999176,0.501960813999176,0.501960813999176);
#190=EDGE_LOOP('',(#259));
#191=EDGE_LOOP('',(#260));
#192=AXIS2_PLACEMENT_3D('',#261,#262,#263);
#193=DRAUGHTING_PRE_DEFINED_CURVE_FONT('continuous');
#194=COLOUR_RGB('',0.501960813999176,0.501960813999176,0.501960813999176);
#195=CARTESIAN_POINT('',(-2.2655965784226E-015,3.5,37.0));
#196=AXIS2_PLACEMENT_3D('',#264,#265,#266);
#197=SURFACE_SIDE_STYLE('',(#267));
#198=DRAUGHTING_PRE_DEFINED_CURVE_FONT('continuous');
#199=COLOUR_RGB('',0.501960813999176,0.501960813999176,0.501960813999176);
#200=EDGE_LOOP('',(#268));
#201=EDGE_LOOP('',(#269));
#202=AXIS2_PLACEMENT_3D('',#270,#271,#272);
#203=SURFACE_SIDE_STYLE('',(#273));
#204=DRAUGHTING_PRE_DEFINED_CURVE_FONT('continuous');
#205=COLOUR_RGB('',0.501960813999176,0.501960813999176,0.501960813999176);
#206=EDGE_LOOP('',(#274));
#207=EDGE_LOOP('',(#275));
#208=AXIS2_PLACEMENT_3D('',#276,#277,#278);
#209=DRAUGHTING_PRE_DEFINED_CURVE_FONT('continuous');
#210=COLOUR_RGB('',0.501960813999176,0.501960813999176,0.501960813999176);
#211=CARTESIAN_POINT('',(-9.18485099360516E-017,8.0,1.5));
#212=AXIS2_PLACEMENT_3D('',#279,#280,#281);
#213=SURFACE_SIDE_STYLE('',(#282));
#214=DRAUGHTING_PRE_DEFINED_CURVE_FONT('continuous');
#215=COLOUR_RGB('',0.501960813999176,0.501960813999176,0.501960813999176);
#216=EDGE_LOOP('',(#283));
#217=EDGE_LOOP('',(#284));
#218=AXIS2_PLACEMENT_3D('',#285,#286,#287);
#219=DRAUGHTING_PRE_DEFINED_CURVE_FONT('continuous');
#220=COLOUR_RGB('',0.501960813999176,0.501960813999176,0.501960813999176);
#221=CARTESIAN_POINT('',(-9.86076131526265E-032,8.0,9.79717439317882E-016));
#222=AXIS2_PLACEMENT_3D('',#288,#289,#290);
#223=SURFACE_SIDE_STYLE('',(#291));
#224=DRAUGHTING_PRE_DEFINED_CURVE_FONT('continuous');
#225=COLOUR_RGB('',0.501960813999176,0.501960813999176,0.501960813999176);
#226=DRAUGHTING_PRE_DEFINED_CURVE_FONT('continuous');
#227=COLOUR_RGB('',0.501960813999176,0.501960813999176,0.501960813999176);
#228=CARTESIAN_POINT('',(-2.2655965784226E-015,8.0,37.0));
#229=AXIS2_PLACEMENT_3D('',#292,#293,#294);
#231=SURFACE_STYLE_FILL_AREA(#295);
#232=ORIENTED_EDGE('',*,*,#75,.F.);
#233=ORIENTED_EDGE('',*,*,#57,.T.);
#234=CARTESIAN_POINT('',(-2.2655965784226E-015,5.75,37.0));
#235=DIRECTION('',(-6.12323399573677E-017,-1.22464679914735E-016,1.0));
#236=DIRECTION('',(1.23259516440783E-032,-1.0,-1.22464679914735E-016));
#237=CARTESIAN_POINT('',(0.0,0.0,0.0));
#238=DIRECTION('',(6.12323399573676E-017,1.22464679914735E-016,-1.0));
#239=DIRECTION('',(-1.23259516440783E-032,1.0,1.22464679914735E-016));
#240=CARTESIAN_POINT('',(9.18485099360515E-017,1.83697019872103E-016,-1.5));
#241=DIRECTION('',(6.12323399573677E-017,1.22464679914735E-016,-1.0));
#242=DIRECTION('',(-1.23259516440783E-032,1.0,1.22464679914735E-016));
#243=SURFACE_STYLE_FILL_AREA(#296);
#244=ORIENTED_EDGE('',*,*,#42,.F.);
#245=ORIENTED_EDGE('',*,*,#70,.T.);
#246=CARTESIAN_POINT('',(-1.01689101063646E-031,8.25,1.01033360929657E-015));
#247=DIRECTION('',(-6.12323399573677E-017,-1.22464679914735E-016,1.0));
#248=DIRECTION('',(1.23259516440783E-032,-1.0,-1.22464679914735E-016));
#249=CARTESIAN_POINT('',(9.18485099360515E-017,1.83697019872103E-016,-1.5));
#250=DIRECTION('',(6.12323399573676E-017,1.22464679914735E-016,-1.0));
#251=DIRECTION('',(-1.23259516440783E-032,1.0,1.22464679914735E-016));
#252=SURFACE_STYLE_FILL_AREA(#297);
#253=ORIENTED_EDGE('',*,*,#44,.F.);
#254=ORIENTED_EDGE('',*,*,#49,.T.);
#255=CARTESIAN_POINT('',(9.18485099360514E-017,6.0,-1.5));
#256=DIRECTION('',(6.12323399573677E-017,1.22464679914735E-016,-1.0));
#257=DIRECTION('',(-1.23259516440783E-032,1.0,1.22464679914735E-016));
#258=SURFACE_STYLE_FILL_AREA(#298);
#259=ORIENTED_EDGE('',*,*,#57,.F.);
#260=ORIENTED_EDGE('',*,*,#44,.T.);
#261=CARTESIAN_POINT('',(-1.08687403424328E-015,-2.17374806848655E-015,17.75));
#262=DIRECTION('',(6.12323399573677E-017,1.22464679914735E-016,-1.0));
#263=DIRECTION('',(-1.23259516440783E-032,1.0,1.22464679914735E-016));
#264=CARTESIAN_POINT('',(-2.2655965784226E-015,-4.53119315684521E-015,37.0));
#265=DIRECTION('',(6.12323399573677E-017,1.22464679914735E-016,-1.0));
#266=DIRECTION('',(-1.23259516440783E-032,1.0,1.22464679914735E-016));
#267=SURFACE_STYLE_FILL_AREA(#299);
#268=ORIENTED_EDGE('',*,*,#49,.F.);
#269=ORIENTED_EDGE('',*,*,#42,.T.);
#270=CARTESIAN_POINT('',(4.59242549680257E-017,9.18485099360515E-017,-0.75));
#271=DIRECTION('',(6.12323399573676E-017,1.22464679914735E-016,-1.0));
#272=DIRECTION('',(-1.23259516440783E-032,1.0,1.22464679914735E-016));
#273=SURFACE_STYLE_FILL_AREA(#300);
#274=ORIENTED_EDGE('',*,*,#70,.F.);
#275=ORIENTED_EDGE('',*,*,#65,.T.);
#276=CARTESIAN_POINT('',(-4.59242549680257E-017,-9.18485099360515E-017,0.75));
#277=DIRECTION('',(6.12323399573677E-017,1.22464679914735E-016,-1.0));
#278=DIRECTION('',(-1.0,-4.82715273076902E-033,-6.12323399573677E-017));
#279=CARTESIAN_POINT('',(-9.18485099360515E-017,-1.83697019872103E-016,1.5));
#280=DIRECTION('',(6.12323399573677E-017,1.22464679914735E-016,-1.0));
#281=DIRECTION('',(-1.23259516440783E-032,1.0,1.22464679914735E-016));
#282=SURFACE_STYLE_FILL_AREA(#301);
#283=ORIENTED_EDGE('',*,*,#65,.F.);
#284=ORIENTED_EDGE('',*,*,#75,.T.);
#285=CARTESIAN_POINT('',(-1.17872254417933E-015,-2.35744508835865E-015,19.25));
#286=DIRECTION('',(6.12323399573677E-017,1.22464679914735E-016,-1.0));
#287=DIRECTION('',(-1.23259516440783E-032,1.0,1.22464679914735E-016));
#288=CARTESIAN_POINT('',(0.0,0.0,0.0));
#289=DIRECTION('',(6.12323399573677E-017,1.22464679914735E-016,-1.0));
#290=DIRECTION('',(-1.23259516440783E-032,1.0,1.22464679914735E-016));
#291=SURFACE_STYLE_FILL_AREA(#302);
#292=CARTESIAN_POINT('',(-2.2655965784226E-015,-4.53119315684521E-015,37.0));
#293=DIRECTION('',(6.12323399573677E-017,1.22464679914735E-016,-1.0));
#294=DIRECTION('',(-1.23259516440783E-032,1.0,1.22464679914735E-016));
#295=FILL_AREA_STYLE('',(#303));
#296=FILL_AREA_STYLE('',(#304));
#297=FILL_AREA_STYLE('',(#305));
#298=FILL_AREA_STYLE('',(#306));
#299=FILL_AREA_STYLE('',(#307));
#300=FILL_AREA_STYLE('',(#308));
#301=FILL_AREA_STYLE('',(#309));
#302=FILL_AREA_STYLE('',(#310));
#303=FILL_AREA_STYLE_COLOUR('',#311);
#304=FILL_AREA_STYLE_COLOUR('',#312);
#305=FILL_AREA_STYLE_COLOUR('',#313);
#306=FILL_AREA_STYLE_COLOUR('',#314);
#307=FILL_AREA_STYLE_COLOUR('',#315);
#308=FILL_AREA_STYLE_COLOUR('',#316);
#309=FILL_AREA_STYLE_COLOUR('',#317);
#310=FILL_AREA_STYLE_COLOUR('',#318);
#311=COLOUR_RGB('',0.501960813999176,0.501960813999176,0.501960813999176);
#312=COLOUR_RGB('',0.501960813999176,0.501960813999176,0.501960813999176);
#313=COLOUR_RGB('',0.501960813999176,0.501960813999176,0.501960813999176);
#314=COLOUR_RGB('',0.501960813999176,0.501960813999176,0.501960813999176);
#315=COLOUR_RGB('',0.501960813999176,0.501960813999176,0.501960813999176);
#316=COLOUR_RGB('',0.501960813999176,0.501960813999176,0.501960813999176);
#317=COLOUR_RGB('',0.501960813999176,0.501960813999176,0.501960813999176);
#318=COLOUR_RGB('',0.501960813999176,0.501960813999176,0.501960813999176);
ENDSEC;
END-ISO-10303-21;
