ISO-10303-21;
HEADER;
FILE_DESCRIPTION((''),'1');
FILE_NAME('T:/00_BIG-HP\X2\FF71FF6FFF8CFF9F\X0\/\X2\670065B0\X0\2025_HP\X2\FF71FF6FFF8CFF9F4E885B9AFF83FF9EFF70FF80\X0\/01_DXF\X2\FF83FF9EFF70FF80\X0\/LINK\X2\7528FF83FF9EFF70FF80\X0\/CK\X2\FF8DFF6FFF84FF9E30FBFF71FF78FF7EFF7BFF98\X0\/10_\X2\4ED54E0A305275284E38FF8AFF9EFF72FF84FF7CFF98FF70FF7DFF9E\X0\/09_\X2\4E38FF8AFF9EFF72FF847528FF7DFF84FF9AFF70FF84FF7AFF9AFF6FFF84\X0\/EC1606.stp','2024-09-10T02:18:03',(''),(''),'Spatial Interop R21 SP3','Kubotek KeyCreator 2011 V10.0.2 (22737)',' ');
FILE_SCHEMA(('automotive_design'));
ENDSEC;
DATA;
#1=MECHANICAL_DESIGN_GEOMETRIC_PRESENTATION_REPRESENTATION(' ',(#10,#11,#12,#13,#14,#15,#16,#17,#18,#19,#20,#21,#22,#23,#24),#6);
#2=PRODUCT_DEFINITION_CONTEXT('',#25,'design');
#3=APPLICATION_PROTOCOL_DEFINITION('INTERNATIONAL STANDARD','automotive_design',1994,#25);
#4=PRODUCT_CATEGORY_RELATIONSHIP('NONE','NONE',#26,#27);
#5=SHAPE_DEFINITION_REPRESENTATION(#28,#29);
#6= (GEOMETRIC_REPRESENTATION_CONTEXT(3)GLOBAL_UNCERTAINTY_ASSIGNED_CONTEXT((#32))GLOBAL_UNIT_ASSIGNED_CONTEXT((#34,#35,#36))REPRESENTATION_CONTEXT('NONE','WORKSPACE'));
#10=STYLED_ITEM('',(#38),#39);
#11=STYLED_ITEM('',(#40),#41);
#12=STYLED_ITEM('',(#42,#43),#44);
#13=STYLED_ITEM('',(#45,#46),#47);
#14=STYLED_ITEM('',(#48,#49),#50);
#15=STYLED_ITEM('',(#51,#52),#53);
#16=STYLED_ITEM('',(#54),#55);
#17=STYLED_ITEM('',(#56),#57);
#18=STYLED_ITEM('',(#58,#59),#60);
#19=STYLED_ITEM('',(#61,#62),#63);
#20=STYLED_ITEM('',(#64,#65),#66);
#21=STYLED_ITEM('',(#67),#68);
#22=STYLED_ITEM('',(#69),#70);
#23=STYLED_ITEM('',(#71),#72);
#24=STYLED_ITEM('',(#73,#74),#75);
#25=APPLICATION_CONTEXT(' ');
#26=PRODUCT_CATEGORY('part','NONE');
#27=PRODUCT_RELATED_PRODUCT_CATEGORY('detail',' ',(#76));
#28=PRODUCT_DEFINITION_SHAPE('NONE','NONE',#77);
#29=ADVANCED_BREP_SHAPE_REPRESENTATION('240[2]',(#66,#78),#6);
#32=UNCERTAINTY_MEASURE_WITH_UNIT(LENGTH_MEASURE(1.0E-006),#34,'','');
#34= (CONVERSION_BASED_UNIT('MILLIMETRE',#81)LENGTH_UNIT()NAMED_UNIT(#84));
#35= (NAMED_UNIT(#86)PLANE_ANGLE_UNIT()SI_UNIT($,.RADIAN.));
#36= (NAMED_UNIT(#86)SOLID_ANGLE_UNIT()SI_UNIT($,.STERADIAN.));
#38=PRESENTATION_STYLE_ASSIGNMENT((#92));
#39=EDGE_CURVE('240[2]',#93,#93,#94,.T.);
#40=PRESENTATION_STYLE_ASSIGNMENT((#95));
#41=EDGE_CURVE('240[2]',#96,#96,#97,.T.);
#42=PRESENTATION_STYLE_ASSIGNMENT((#98));
#43=PRESENTATION_STYLE_ASSIGNMENT((#99));
#44=ADVANCED_FACE('240[2]',(#100,#101),#102,.T.);
#45=PRESENTATION_STYLE_ASSIGNMENT((#103));
#46=PRESENTATION_STYLE_ASSIGNMENT((#104));
#47=ADVANCED_FACE('240[2]',(#105,#106),#107,.T.);
#48=PRESENTATION_STYLE_ASSIGNMENT((#108));
#49=PRESENTATION_STYLE_ASSIGNMENT((#109));
#50=ADVANCED_FACE('240[2]',(#110,#111),#112,.T.);
#51=PRESENTATION_STYLE_ASSIGNMENT((#113));
#52=PRESENTATION_STYLE_ASSIGNMENT((#114));
#53=ADVANCED_FACE('240[2]',(#115,#116),#117,.F.);
#54=PRESENTATION_STYLE_ASSIGNMENT((#118));
#55=EDGE_CURVE('240[2]',#119,#119,#120,.T.);
#56=PRESENTATION_STYLE_ASSIGNMENT((#121));
#57=EDGE_CURVE('240[2]',#122,#122,#123,.T.);
#58=PRESENTATION_STYLE_ASSIGNMENT((#124));
#59=PRESENTATION_STYLE_ASSIGNMENT((#125));
#60=ADVANCED_FACE('240[2]',(#126,#127),#128,.T.);
#61=PRESENTATION_STYLE_ASSIGNMENT((#129));
#62=PRESENTATION_STYLE_ASSIGNMENT((#130));
#63=ADVANCED_FACE('240[2]',(#131,#132),#133,.T.);
#64=PRESENTATION_STYLE_ASSIGNMENT((#134));
#65=PRESENTATION_STYLE_ASSIGNMENT((#135));
#66=MANIFOLD_SOLID_BREP('240[2]',#136);
#67=PRESENTATION_STYLE_ASSIGNMENT((#137));
#68=EDGE_CURVE('240[2]',#138,#138,#139,.T.);
#69=PRESENTATION_STYLE_ASSIGNMENT((#140));
#70=EDGE_CURVE('240[2]',#141,#141,#142,.T.);
#71=PRESENTATION_STYLE_ASSIGNMENT((#143));
#72=EDGE_CURVE('240[2]',#144,#144,#145,.T.);
#73=PRESENTATION_STYLE_ASSIGNMENT((#146));
#74=PRESENTATION_STYLE_ASSIGNMENT((#147));
#75=ADVANCED_FACE('240[2]',(#148,#149),#150,.T.);
#76=PRODUCT('240[2]','240[2]','PART-240[2]-DESC',(#151));
#77=PRODUCT_DEFINITION('NONE','NONE',#152,#2);
#78=AXIS2_PLACEMENT_3D('',#153,#154,#155);
#81=LENGTH_MEASURE_WITH_UNIT(LENGTH_MEASURE(1.0),#156);
#84=DIMENSIONAL_EXPONENTS(1.0,0.0,0.0,0.0,0.0,0.0,0.0);
#86=DIMENSIONAL_EXPONENTS(0.0,0.0,0.0,0.0,0.0,0.0,0.0);
#92=CURVE_STYLE('',#157,POSITIVE_LENGTH_MEASURE(1000.0),#158);
#93=VERTEX_POINT('',#159);
#94=CIRCLE('',#160,8.0);
#95=CURVE_STYLE('',#161,POSITIVE_LENGTH_MEASURE(1000.0),#162);
#96=VERTEX_POINT('',#163);
#97=CIRCLE('',#164,8.5);
#98=SURFACE_STYLE_USAGE(.BOTH.,#165);
#99=CURVE_STYLE('',#166,POSITIVE_LENGTH_MEASURE(1000.0),#167);
#100=FACE_OUTER_BOUND('',#168,.T.);
#101=FACE_BOUND('',#169,.T.);
#102=PLANE('',#170);
#103=SURFACE_STYLE_USAGE(.BOTH.,#171);
#104=CURVE_STYLE('',#172,POSITIVE_LENGTH_MEASURE(1000.0),#173);
#105=FACE_BOUND('',#174,.T.);
#106=FACE_BOUND('',#175,.T.);
#107=CYLINDRICAL_SURFACE('',#176,8.5);
#108=SURFACE_STYLE_USAGE(.BOTH.,#177);
#109=CURVE_STYLE('',#178,POSITIVE_LENGTH_MEASURE(1000.0),#179);
#110=FACE_OUTER_BOUND('',#180,.T.);
#111=FACE_BOUND('',#181,.T.);
#112=PLANE('',#182);
#113=SURFACE_STYLE_USAGE(.BOTH.,#183);
#114=CURVE_STYLE('',#184,POSITIVE_LENGTH_MEASURE(1000.0),#185);
#115=FACE_BOUND('',#186,.T.);
#116=FACE_BOUND('',#187,.T.);
#117=CYLINDRICAL_SURFACE('',#188,3.0);
#118=CURVE_STYLE('',#189,POSITIVE_LENGTH_MEASURE(1000.0),#190);
#119=VERTEX_POINT('',#191);
#120=CIRCLE('',#192,8.0);
#121=CURVE_STYLE('',#193,POSITIVE_LENGTH_MEASURE(1000.0),#194);
#122=VERTEX_POINT('',#195);
#123=CIRCLE('',#196,8.5);
#124=SURFACE_STYLE_USAGE(.BOTH.,#197);
#125=CURVE_STYLE('',#198,POSITIVE_LENGTH_MEASURE(1000.0),#199);
#126=FACE_BOUND('',#200,.T.);
#127=FACE_BOUND('',#201,.T.);
#128=TOROIDAL_SURFACE('',#202,7.6875,0.8125);
#129=SURFACE_STYLE_USAGE(.BOTH.,#203);
#130=CURVE_STYLE('',#204,POSITIVE_LENGTH_MEASURE(1000.0),#205);
#131=FACE_BOUND('',#206,.T.);
#132=FACE_BOUND('',#207,.T.);
#133=CYLINDRICAL_SURFACE('',#208,8.0);
#134=SURFACE_STYLE_USAGE(.BOTH.,#209);
#135=CURVE_STYLE('',#210,POSITIVE_LENGTH_MEASURE(1000.0),#211);
#136=CLOSED_SHELL('',(#44,#63,#60,#50,#47,#75,#53));
#137=CURVE_STYLE('',#212,POSITIVE_LENGTH_MEASURE(1000.0),#213);
#138=VERTEX_POINT('',#214);
#139=CIRCLE('',#215,3.0);
#140=CURVE_STYLE('',#216,POSITIVE_LENGTH_MEASURE(1000.0),#217);
#141=VERTEX_POINT('',#218);
#142=CIRCLE('',#219,3.0);
#143=CURVE_STYLE('',#220,POSITIVE_LENGTH_MEASURE(1000.0),#221);
#144=VERTEX_POINT('',#222);
#145=CIRCLE('',#223,8.0);
#146=SURFACE_STYLE_USAGE(.BOTH.,#224);
#147=CURVE_STYLE('',#225,POSITIVE_LENGTH_MEASURE(1000.0),#226);
#148=FACE_BOUND('',#227,.T.);
#149=FACE_OUTER_BOUND('',#228,.T.);
#150=PLANE('',#229);
#151=PRODUCT_CONTEXT('',#25,'mechanical');
#152=PRODUCT_DEFINITION_FORMATION_WITH_SPECIFIED_SOURCE(' ','NONE',#76,.NOT_KNOWN.);
#153=CARTESIAN_POINT('',(0.0,0.0,0.0));
#154=DIRECTION('',(0.0,0.0,1.0));
#155=DIRECTION('',(1.0,0.0,0.0));
#156= (NAMED_UNIT(#84)LENGTH_UNIT()SI_UNIT(.MILLI.,.METRE.));
#157=DRAUGHTING_PRE_DEFINED_CURVE_FONT('continuous');
#158=COLOUR_RGB('',0.501960813999176,0.501960813999176,0.501960813999176);
#159=CARTESIAN_POINT('',(-9.18485099360516E-017,8.0,1.5));
#160=AXIS2_PLACEMENT_3D('',#231,#232,#233);
#161=DRAUGHTING_PRE_DEFINED_CURVE_FONT('continuous');
#162=COLOUR_RGB('',0.501960813999176,0.501960813999176,0.501960813999176);
#163=CARTESIAN_POINT('',(-1.04770588974666E-031,8.5,1.04094977927525E-015));
#164=AXIS2_PLACEMENT_3D('',#234,#235,#236);
#165=SURFACE_SIDE_STYLE('',(#237));
#166=DRAUGHTING_PRE_DEFINED_CURVE_FONT('continuous');
#167=COLOUR_RGB('',0.501960813999176,0.501960813999176,0.501960813999176);
#168=EDGE_LOOP('',(#238));
#169=EDGE_LOOP('',(#239));
#170=AXIS2_PLACEMENT_3D('',#240,#241,#242);
#171=SURFACE_SIDE_STYLE('',(#243));
#172=DRAUGHTING_PRE_DEFINED_CURVE_FONT('continuous');
#173=COLOUR_RGB('',0.501960813999176,0.501960813999176,0.501960813999176);
#174=EDGE_LOOP('',(#244));
#175=EDGE_LOOP('',(#245));
#176=AXIS2_PLACEMENT_3D('',#246,#247,#248);
#177=SURFACE_SIDE_STYLE('',(#249));
#178=DRAUGHTING_PRE_DEFINED_CURVE_FONT('continuous');
#179=COLOUR_RGB('',0.501960813999176,0.501960813999176,0.501960813999176);
#180=EDGE_LOOP('',(#250));
#181=EDGE_LOOP('',(#251));
#182=AXIS2_PLACEMENT_3D('',#252,#253,#254);
#183=SURFACE_SIDE_STYLE('',(#255));
#184=DRAUGHTING_PRE_DEFINED_CURVE_FONT('continuous');
#185=COLOUR_RGB('',0.501960813999176,0.501960813999176,0.501960813999176);
#186=EDGE_LOOP('',(#256));
#187=EDGE_LOOP('',(#257));
#188=AXIS2_PLACEMENT_3D('',#258,#259,#260);
#189=DRAUGHTING_PRE_DEFINED_CURVE_FONT('continuous');
#190=COLOUR_RGB('',0.501960813999176,0.501960813999176,0.501960813999176);
#191=CARTESIAN_POINT('',(-2.2655965784226E-015,8.0,37.0));
#192=AXIS2_PLACEMENT_3D('',#261,#262,#263);
#193=DRAUGHTING_PRE_DEFINED_CURVE_FONT('continuous');
#194=COLOUR_RGB('',0.501960813999176,0.501960813999176,0.501960813999176);
#195=CARTESIAN_POINT('',(9.18485099360514E-017,8.5,-1.5));
#196=AXIS2_PLACEMENT_3D('',#264,#265,#266);
#197=SURFACE_SIDE_STYLE('',(#267));
#198=DRAUGHTING_PRE_DEFINED_CURVE_FONT('continuous');
#199=COLOUR_RGB('',0.501960813999176,0.501960813999176,0.501960813999176);
#200=EDGE_LOOP('',(#268));
#201=EDGE_LOOP('',(#269));
#202=AXIS2_PLACEMENT_3D('',#270,#271,#272);
#203=SURFACE_SIDE_STYLE('',(#273));
#204=DRAUGHTING_PRE_DEFINED_CURVE_FONT('continuous');
#205=COLOUR_RGB('',0.501960813999176,0.501960813999176,0.501960813999176);
#206=EDGE_LOOP('',(#274));
#207=EDGE_LOOP('',(#275));
#208=AXIS2_PLACEMENT_3D('',#276,#277,#278);
#209=SURFACE_SIDE_STYLE('',(#279));
#210=DRAUGHTING_PRE_DEFINED_CURVE_FONT('continuous');
#211=COLOUR_RGB('',0.501960813999176,0.501960813999176,0.501960813999176);
#212=DRAUGHTING_PRE_DEFINED_CURVE_FONT('continuous');
#213=COLOUR_RGB('',0.501960813999176,0.501960813999176,0.501960813999176);
#214=CARTESIAN_POINT('',(9.18485099360514E-017,3.0,-1.5));
#215=AXIS2_PLACEMENT_3D('',#280,#281,#282);
#216=DRAUGHTING_PRE_DEFINED_CURVE_FONT('continuous');
#217=COLOUR_RGB('',0.501960813999176,0.501960813999176,0.501960813999176);
#218=CARTESIAN_POINT('',(-2.2655965784226E-015,3.0,37.0));
#219=AXIS2_PLACEMENT_3D('',#283,#284,#285);
#220=DRAUGHTING_PRE_DEFINED_CURVE_FONT('continuous');
#221=COLOUR_RGB('',0.501960813999176,0.501960813999176,0.501960813999176);
#222=CARTESIAN_POINT('',(-9.86076131526265E-032,8.0,9.79717439317882E-016));
#223=AXIS2_PLACEMENT_3D('',#286,#287,#288);
#224=SURFACE_SIDE_STYLE('',(#289));
#225=DRAUGHTING_PRE_DEFINED_CURVE_FONT('continuous');
#226=COLOUR_RGB('',0.501960813999176,0.501960813999176,0.501960813999176);
#227=EDGE_LOOP('',(#290));
#228=EDGE_LOOP('',(#291));
#229=AXIS2_PLACEMENT_3D('',#292,#293,#294);
#231=CARTESIAN_POINT('',(-9.18485099360515E-017,-1.83697019872103E-016,1.5));
#232=DIRECTION('',(6.12323399573677E-017,1.22464679914735E-016,-1.0));
#233=DIRECTION('',(-1.23259516440783E-032,1.0,1.22464679914735E-016));
#234=CARTESIAN_POINT('',(0.0,0.0,0.0));
#235=DIRECTION('',(6.12323399573676E-017,1.22464679914735E-016,-1.0));
#236=DIRECTION('',(-1.23259516440783E-032,1.0,1.22464679914735E-016));
#237=SURFACE_STYLE_FILL_AREA(#295);
#238=ORIENTED_EDGE('',*,*,#55,.F.);
#239=ORIENTED_EDGE('',*,*,#70,.T.);
#240=CARTESIAN_POINT('',(-2.2655965784226E-015,5.5,37.0));
#241=DIRECTION('',(-6.12323399573677E-017,-1.22464679914735E-016,1.0));
#242=DIRECTION('',(1.23259516440783E-032,-1.0,-1.22464679914735E-016));
#243=SURFACE_STYLE_FILL_AREA(#296);
#244=ORIENTED_EDGE('',*,*,#57,.F.);
#245=ORIENTED_EDGE('',*,*,#41,.T.);
#246=CARTESIAN_POINT('',(4.59242549680257E-017,9.18485099360515E-017,-0.75));
#247=DIRECTION('',(6.12323399573676E-017,1.22464679914735E-016,-1.0));
#248=DIRECTION('',(-1.23259516440783E-032,1.0,1.22464679914735E-016));
#249=SURFACE_STYLE_FILL_AREA(#297);
#250=ORIENTED_EDGE('',*,*,#41,.F.);
#251=ORIENTED_EDGE('',*,*,#72,.T.);
#252=CARTESIAN_POINT('',(-1.01689101063646E-031,8.25,1.01033360929657E-015));
#253=DIRECTION('',(-6.12323399573677E-017,-1.22464679914735E-016,1.0));
#254=DIRECTION('',(1.23259516440783E-032,-1.0,-1.22464679914735E-016));
#255=SURFACE_STYLE_FILL_AREA(#298);
#256=ORIENTED_EDGE('',*,*,#70,.F.);
#257=ORIENTED_EDGE('',*,*,#68,.T.);
#258=CARTESIAN_POINT('',(-1.08687403424328E-015,-2.17374806848655E-015,17.75));
#259=DIRECTION('',(6.12323399573677E-017,1.22464679914735E-016,-1.0));
#260=DIRECTION('',(-1.23259516440783E-032,1.0,1.22464679914735E-016));
#261=CARTESIAN_POINT('',(-2.2655965784226E-015,-4.53119315684521E-015,37.0));
#262=DIRECTION('',(6.12323399573677E-017,1.22464679914735E-016,-1.0));
#263=DIRECTION('',(-1.23259516440783E-032,1.0,1.22464679914735E-016));
#264=CARTESIAN_POINT('',(9.18485099360515E-017,1.83697019872103E-016,-1.5));
#265=DIRECTION('',(6.12323399573676E-017,1.22464679914735E-016,-1.0));
#266=DIRECTION('',(-1.23259516440783E-032,1.0,1.22464679914735E-016));
#267=SURFACE_STYLE_FILL_AREA(#299);
#268=ORIENTED_EDGE('',*,*,#72,.F.);
#269=ORIENTED_EDGE('',*,*,#39,.T.);
#270=CARTESIAN_POINT('',(-4.59242549680257E-017,-9.18485099360515E-017,0.75));
#271=DIRECTION('',(6.12323399573677E-017,1.22464679914735E-016,-1.0));
#272=DIRECTION('',(-1.0,-4.82715273076902E-033,-6.12323399573677E-017));
#273=SURFACE_STYLE_FILL_AREA(#300);
#274=ORIENTED_EDGE('',*,*,#39,.F.);
#275=ORIENTED_EDGE('',*,*,#55,.T.);
#276=CARTESIAN_POINT('',(-1.17872254417933E-015,-2.35744508835865E-015,19.25));
#277=DIRECTION('',(6.12323399573677E-017,1.22464679914735E-016,-1.0));
#278=DIRECTION('',(-1.23259516440783E-032,1.0,1.22464679914735E-016));
#279=SURFACE_STYLE_FILL_AREA(#301);
#280=CARTESIAN_POINT('',(9.18485099360515E-017,1.83697019872103E-016,-1.5));
#281=DIRECTION('',(6.12323399573677E-017,1.22464679914735E-016,-1.0));
#282=DIRECTION('',(-1.23259516440783E-032,1.0,1.22464679914735E-016));
#283=CARTESIAN_POINT('',(-2.2655965784226E-015,-4.53119315684521E-015,37.0));
#284=DIRECTION('',(6.12323399573677E-017,1.22464679914735E-016,-1.0));
#285=DIRECTION('',(-1.23259516440783E-032,1.0,1.22464679914735E-016));
#286=CARTESIAN_POINT('',(0.0,0.0,0.0));
#287=DIRECTION('',(6.12323399573677E-017,1.22464679914735E-016,-1.0));
#288=DIRECTION('',(-1.23259516440783E-032,1.0,1.22464679914735E-016));
#289=SURFACE_STYLE_FILL_AREA(#302);
#290=ORIENTED_EDGE('',*,*,#68,.F.);
#291=ORIENTED_EDGE('',*,*,#57,.T.);
#292=CARTESIAN_POINT('',(9.18485099360514E-017,5.75,-1.5));
#293=DIRECTION('',(6.12323399573677E-017,1.22464679914735E-016,-1.0));
#294=DIRECTION('',(-1.23259516440783E-032,1.0,1.22464679914735E-016));
#295=FILL_AREA_STYLE('',(#303));
#296=FILL_AREA_STYLE('',(#304));
#297=FILL_AREA_STYLE('',(#305));
#298=FILL_AREA_STYLE('',(#306));
#299=FILL_AREA_STYLE('',(#307));
#300=FILL_AREA_STYLE('',(#308));
#301=FILL_AREA_STYLE('',(#309));
#302=FILL_AREA_STYLE('',(#310));
#303=FILL_AREA_STYLE_COLOUR('',#311);
#304=FILL_AREA_STYLE_COLOUR('',#312);
#305=FILL_AREA_STYLE_COLOUR('',#313);
#306=FILL_AREA_STYLE_COLOUR('',#314);
#307=FILL_AREA_STYLE_COLOUR('',#315);
#308=FILL_AREA_STYLE_COLOUR('',#316);
#309=FILL_AREA_STYLE_COLOUR('',#317);
#310=FILL_AREA_STYLE_COLOUR('',#318);
#311=COLOUR_RGB('',0.501960813999176,0.501960813999176,0.501960813999176);
#312=COLOUR_RGB('',0.501960813999176,0.501960813999176,0.501960813999176);
#313=COLOUR_RGB('',0.501960813999176,0.501960813999176,0.501960813999176);
#314=COLOUR_RGB('',0.501960813999176,0.501960813999176,0.501960813999176);
#315=COLOUR_RGB('',0.501960813999176,0.501960813999176,0.501960813999176);
#316=COLOUR_RGB('',0.501960813999176,0.501960813999176,0.501960813999176);
#317=COLOUR_RGB('',0.501960813999176,0.501960813999176,0.501960813999176);
#318=COLOUR_RGB('',0.501960813999176,0.501960813999176,0.501960813999176);
ENDSEC;
END-ISO-10303-21;
