ISO-10303-21;
HEADER;
FILE_DESCRIPTION((''),'1');
FILE_NAME('T:/00_BIG-HP\X2\FF71FF6FFF8CFF9F\X0\/\X2\670065B0\X0\2025_HP\X2\FF71FF6FFF8CFF9F4E885B9AFF83FF9EFF70FF80\X0\/01_DXF\X2\FF83FF9EFF70FF80\X0\/LINK\X2\7528FF83FF9EFF70FF80\X0\/CK\X2\FF8DFF6FFF84FF9E30FBFF71FF78FF7EFF7BFF98\X0\/10_\X2\4ED54E0A305275284E38FF8AFF9EFF72FF84FF7CFF98FF70FF7DFF9E\X0\/09_\X2\4E38FF8AFF9EFF72FF847528FF7DFF84FF9AFF70FF84FF7AFF9AFF6FFF84\X0\/EC1605.stp','2024-09-10T02:16:00',(''),(''),'Spatial Interop R21 SP3','Kubotek KeyCreator 2011 V10.0.2 (22737)',' ');
FILE_SCHEMA(('automotive_design'));
ENDSEC;
DATA;
#1=MECHANICAL_DESIGN_GEOMETRIC_PRESENTATION_REPRESENTATION(' ',(#10,#11,#12,#13,#14,#15,#16,#17,#18,#19,#20,#21,#22,#23,#24),#6);
#2=PRODUCT_DEFINITION_CONTEXT('',#25,'design');
#3=APPLICATION_PROTOCOL_DEFINITION('INTERNATIONAL STANDARD','automotive_design',1994,#25);
#4=PRODUCT_CATEGORY_RELATIONSHIP('NONE','NONE',#26,#27);
#5=SHAPE_DEFINITION_REPRESENTATION(#28,#29);
#6= (GEOMETRIC_REPRESENTATION_CONTEXT(3)GLOBAL_UNCERTAINTY_ASSIGNED_CONTEXT((#32))GLOBAL_UNIT_ASSIGNED_CONTEXT((#34,#35,#36))REPRESENTATION_CONTEXT('NONE','WORKSPACE'));
#10=STYLED_ITEM('',(#38,#39),#40);
#11=STYLED_ITEM('',(#41,#42),#43);
#12=STYLED_ITEM('',(#44),#45);
#13=STYLED_ITEM('',(#46),#47);
#14=STYLED_ITEM('',(#48,#49),#50);
#15=STYLED_ITEM('',(#51),#52);
#16=STYLED_ITEM('',(#53),#54);
#17=STYLED_ITEM('',(#55,#56),#57);
#18=STYLED_ITEM('',(#58),#59);
#19=STYLED_ITEM('',(#60,#61),#62);
#20=STYLED_ITEM('',(#63,#64),#65);
#21=STYLED_ITEM('',(#66,#67),#68);
#22=STYLED_ITEM('',(#69),#70);
#23=STYLED_ITEM('',(#71,#72),#73);
#24=STYLED_ITEM('',(#74),#75);
#25=APPLICATION_CONTEXT(' ');
#26=PRODUCT_CATEGORY('part','NONE');
#27=PRODUCT_RELATED_PRODUCT_CATEGORY('detail',' ',(#76));
#28=PRODUCT_DEFINITION_SHAPE('NONE','NONE',#77);
#29=ADVANCED_BREP_SHAPE_REPRESENTATION('240[2]',(#57,#78),#6);
#32=UNCERTAINTY_MEASURE_WITH_UNIT(LENGTH_MEASURE(1.0E-006),#34,'','');
#34= (CONVERSION_BASED_UNIT('MILLIMETRE',#81)LENGTH_UNIT()NAMED_UNIT(#84));
#35= (NAMED_UNIT(#86)PLANE_ANGLE_UNIT()SI_UNIT($,.RADIAN.));
#36= (NAMED_UNIT(#86)SOLID_ANGLE_UNIT()SI_UNIT($,.STERADIAN.));
#38=PRESENTATION_STYLE_ASSIGNMENT((#92));
#39=PRESENTATION_STYLE_ASSIGNMENT((#93));
#40=ADVANCED_FACE('240[2]',(#94,#95),#96,.T.);
#41=PRESENTATION_STYLE_ASSIGNMENT((#97));
#42=PRESENTATION_STYLE_ASSIGNMENT((#98));
#43=ADVANCED_FACE('240[2]',(#99,#100),#101,.F.);
#44=PRESENTATION_STYLE_ASSIGNMENT((#102));
#45=EDGE_CURVE('240[2]',#103,#103,#104,.T.);
#46=PRESENTATION_STYLE_ASSIGNMENT((#105));
#47=EDGE_CURVE('240[2]',#106,#106,#107,.T.);
#48=PRESENTATION_STYLE_ASSIGNMENT((#108));
#49=PRESENTATION_STYLE_ASSIGNMENT((#109));
#50=ADVANCED_FACE('240[2]',(#110,#111),#112,.T.);
#51=PRESENTATION_STYLE_ASSIGNMENT((#113));
#52=EDGE_CURVE('240[2]',#114,#114,#115,.T.);
#53=PRESENTATION_STYLE_ASSIGNMENT((#116));
#54=EDGE_CURVE('240[2]',#117,#117,#118,.T.);
#55=PRESENTATION_STYLE_ASSIGNMENT((#119));
#56=PRESENTATION_STYLE_ASSIGNMENT((#120));
#57=MANIFOLD_SOLID_BREP('240[2]',#121);
#58=PRESENTATION_STYLE_ASSIGNMENT((#122));
#59=EDGE_CURVE('240[2]',#123,#123,#124,.T.);
#60=PRESENTATION_STYLE_ASSIGNMENT((#125));
#61=PRESENTATION_STYLE_ASSIGNMENT((#126));
#62=ADVANCED_FACE('240[2]',(#127,#128),#129,.T.);
#63=PRESENTATION_STYLE_ASSIGNMENT((#130));
#64=PRESENTATION_STYLE_ASSIGNMENT((#131));
#65=ADVANCED_FACE('240[2]',(#132,#133),#134,.T.);
#66=PRESENTATION_STYLE_ASSIGNMENT((#135));
#67=PRESENTATION_STYLE_ASSIGNMENT((#136));
#68=ADVANCED_FACE('240[2]',(#137,#138),#139,.T.);
#69=PRESENTATION_STYLE_ASSIGNMENT((#140));
#70=EDGE_CURVE('240[2]',#141,#141,#142,.T.);
#71=PRESENTATION_STYLE_ASSIGNMENT((#143));
#72=PRESENTATION_STYLE_ASSIGNMENT((#144));
#73=ADVANCED_FACE('240[2]',(#145,#146),#147,.T.);
#74=PRESENTATION_STYLE_ASSIGNMENT((#148));
#75=EDGE_CURVE('240[2]',#149,#149,#150,.T.);
#76=PRODUCT('240[2]','240[2]','PART-240[2]-DESC',(#151));
#77=PRODUCT_DEFINITION('NONE','NONE',#152,#2);
#78=AXIS2_PLACEMENT_3D('',#153,#154,#155);
#81=LENGTH_MEASURE_WITH_UNIT(LENGTH_MEASURE(1.0),#156);
#84=DIMENSIONAL_EXPONENTS(1.0,0.0,0.0,0.0,0.0,0.0,0.0);
#86=DIMENSIONAL_EXPONENTS(0.0,0.0,0.0,0.0,0.0,0.0,0.0);
#92=SURFACE_STYLE_USAGE(.BOTH.,#157);
#93=CURVE_STYLE('',#158,POSITIVE_LENGTH_MEASURE(1000.0),#159);
#94=FACE_BOUND('',#160,.T.);
#95=FACE_BOUND('',#161,.T.);
#96=CYLINDRICAL_SURFACE('',#162,8.0);
#97=SURFACE_STYLE_USAGE(.BOTH.,#163);
#98=CURVE_STYLE('',#164,POSITIVE_LENGTH_MEASURE(1000.0),#165);
#99=FACE_BOUND('',#166,.T.);
#100=FACE_BOUND('',#167,.T.);
#101=CYLINDRICAL_SURFACE('',#168,2.5);
#102=CURVE_STYLE('',#169,POSITIVE_LENGTH_MEASURE(1000.0),#170);
#103=VERTEX_POINT('',#171);
#104=CIRCLE('',#172,8.5);
#105=CURVE_STYLE('',#173,POSITIVE_LENGTH_MEASURE(1000.0),#174);
#106=VERTEX_POINT('',#175);
#107=CIRCLE('',#176,2.5);
#108=SURFACE_STYLE_USAGE(.BOTH.,#177);
#109=CURVE_STYLE('',#178,POSITIVE_LENGTH_MEASURE(1000.0),#179);
#110=FACE_BOUND('',#180,.T.);
#111=FACE_OUTER_BOUND('',#181,.T.);
#112=PLANE('',#182);
#113=CURVE_STYLE('',#183,POSITIVE_LENGTH_MEASURE(1000.0),#184);
#114=VERTEX_POINT('',#185);
#115=CIRCLE('',#186,8.0);
#116=CURVE_STYLE('',#187,POSITIVE_LENGTH_MEASURE(1000.0),#188);
#117=VERTEX_POINT('',#189);
#118=CIRCLE('',#190,8.0);
#119=SURFACE_STYLE_USAGE(.BOTH.,#191);
#120=CURVE_STYLE('',#192,POSITIVE_LENGTH_MEASURE(1000.0),#193);
#121=CLOSED_SHELL('',(#68,#40,#73,#62,#65,#50,#43));
#122=CURVE_STYLE('',#194,POSITIVE_LENGTH_MEASURE(1000.0),#195);
#123=VERTEX_POINT('',#196);
#124=CIRCLE('',#197,8.5);
#125=SURFACE_STYLE_USAGE(.BOTH.,#198);
#126=CURVE_STYLE('',#199,POSITIVE_LENGTH_MEASURE(1000.0),#200);
#127=FACE_OUTER_BOUND('',#201,.T.);
#128=FACE_BOUND('',#202,.T.);
#129=PLANE('',#203);
#130=SURFACE_STYLE_USAGE(.BOTH.,#204);
#131=CURVE_STYLE('',#205,POSITIVE_LENGTH_MEASURE(1000.0),#206);
#132=FACE_BOUND('',#207,.T.);
#133=FACE_BOUND('',#208,.T.);
#134=CYLINDRICAL_SURFACE('',#209,8.5);
#135=SURFACE_STYLE_USAGE(.BOTH.,#210);
#136=CURVE_STYLE('',#211,POSITIVE_LENGTH_MEASURE(1000.0),#212);
#137=FACE_OUTER_BOUND('',#213,.T.);
#138=FACE_BOUND('',#214,.T.);
#139=PLANE('',#215);
#140=CURVE_STYLE('',#216,POSITIVE_LENGTH_MEASURE(1000.0),#217);
#141=VERTEX_POINT('',#218);
#142=CIRCLE('',#219,2.5);
#143=SURFACE_STYLE_USAGE(.BOTH.,#220);
#144=CURVE_STYLE('',#221,POSITIVE_LENGTH_MEASURE(1000.0),#222);
#145=FACE_BOUND('',#223,.T.);
#146=FACE_BOUND('',#224,.T.);
#147=TOROIDAL_SURFACE('',#225,7.6875,0.8125);
#148=CURVE_STYLE('',#226,POSITIVE_LENGTH_MEASURE(1000.0),#227);
#149=VERTEX_POINT('',#228);
#150=CIRCLE('',#229,8.0);
#151=PRODUCT_CONTEXT('',#25,'mechanical');
#152=PRODUCT_DEFINITION_FORMATION_WITH_SPECIFIED_SOURCE(' ','NONE',#76,.NOT_KNOWN.);
#153=CARTESIAN_POINT('',(0.0,0.0,0.0));
#154=DIRECTION('',(0.0,0.0,1.0));
#155=DIRECTION('',(1.0,0.0,0.0));
#156= (NAMED_UNIT(#84)LENGTH_UNIT()SI_UNIT(.MILLI.,.METRE.));
#157=SURFACE_SIDE_STYLE('',(#231));
#158=DRAUGHTING_PRE_DEFINED_CURVE_FONT('continuous');
#159=COLOUR_RGB('',0.501960813999176,0.501960813999176,0.501960813999176);
#160=EDGE_LOOP('',(#232));
#161=EDGE_LOOP('',(#233));
#162=AXIS2_PLACEMENT_3D('',#234,#235,#236);
#163=SURFACE_SIDE_STYLE('',(#237));
#164=DRAUGHTING_PRE_DEFINED_CURVE_FONT('continuous');
#165=COLOUR_RGB('',0.501960813999176,0.501960813999176,0.501960813999176);
#166=EDGE_LOOP('',(#238));
#167=EDGE_LOOP('',(#239));
#168=AXIS2_PLACEMENT_3D('',#240,#241,#242);
#169=DRAUGHTING_PRE_DEFINED_CURVE_FONT('continuous');
#170=COLOUR_RGB('',0.501960813999176,0.501960813999176,0.501960813999176);
#171=CARTESIAN_POINT('',(9.18485099360514E-017,8.5,-1.5));
#172=AXIS2_PLACEMENT_3D('',#243,#244,#245);
#173=DRAUGHTING_PRE_DEFINED_CURVE_FONT('continuous');
#174=COLOUR_RGB('',0.501960813999176,0.501960813999176,0.501960813999176);
#175=CARTESIAN_POINT('',(-2.2655965784226E-015,2.5,37.0));
#176=AXIS2_PLACEMENT_3D('',#246,#247,#248);
#177=SURFACE_SIDE_STYLE('',(#249));
#178=DRAUGHTING_PRE_DEFINED_CURVE_FONT('continuous');
#179=COLOUR_RGB('',0.501960813999176,0.501960813999176,0.501960813999176);
#180=EDGE_LOOP('',(#250));
#181=EDGE_LOOP('',(#251));
#182=AXIS2_PLACEMENT_3D('',#252,#253,#254);
#183=DRAUGHTING_PRE_DEFINED_CURVE_FONT('continuous');
#184=COLOUR_RGB('',0.501960813999176,0.501960813999176,0.501960813999176);
#185=CARTESIAN_POINT('',(-2.2655965784226E-015,8.0,37.0));
#186=AXIS2_PLACEMENT_3D('',#255,#256,#257);
#187=DRAUGHTING_PRE_DEFINED_CURVE_FONT('continuous');
#188=COLOUR_RGB('',0.501960813999176,0.501960813999176,0.501960813999176);
#189=CARTESIAN_POINT('',(-9.18485099360516E-017,8.0,1.5));
#190=AXIS2_PLACEMENT_3D('',#258,#259,#260);
#191=SURFACE_SIDE_STYLE('',(#261));
#192=DRAUGHTING_PRE_DEFINED_CURVE_FONT('continuous');
#193=COLOUR_RGB('',0.501960813999176,0.501960813999176,0.501960813999176);
#194=DRAUGHTING_PRE_DEFINED_CURVE_FONT('continuous');
#195=COLOUR_RGB('',0.501960813999176,0.501960813999176,0.501960813999176);
#196=CARTESIAN_POINT('',(-1.04770588974666E-031,8.5,1.04094977927525E-015));
#197=AXIS2_PLACEMENT_3D('',#262,#263,#264);
#198=SURFACE_SIDE_STYLE('',(#265));
#199=DRAUGHTING_PRE_DEFINED_CURVE_FONT('continuous');
#200=COLOUR_RGB('',0.501960813999176,0.501960813999176,0.501960813999176);
#201=EDGE_LOOP('',(#266));
#202=EDGE_LOOP('',(#267));
#203=AXIS2_PLACEMENT_3D('',#268,#269,#270);
#204=SURFACE_SIDE_STYLE('',(#271));
#205=DRAUGHTING_PRE_DEFINED_CURVE_FONT('continuous');
#206=COLOUR_RGB('',0.501960813999176,0.501960813999176,0.501960813999176);
#207=EDGE_LOOP('',(#272));
#208=EDGE_LOOP('',(#273));
#209=AXIS2_PLACEMENT_3D('',#274,#275,#276);
#210=SURFACE_SIDE_STYLE('',(#277));
#211=DRAUGHTING_PRE_DEFINED_CURVE_FONT('continuous');
#212=COLOUR_RGB('',0.501960813999176,0.501960813999176,0.501960813999176);
#213=EDGE_LOOP('',(#278));
#214=EDGE_LOOP('',(#279));
#215=AXIS2_PLACEMENT_3D('',#280,#281,#282);
#216=DRAUGHTING_PRE_DEFINED_CURVE_FONT('continuous');
#217=COLOUR_RGB('',0.501960813999176,0.501960813999176,0.501960813999176);
#218=CARTESIAN_POINT('',(9.18485099360515E-017,2.5,-1.5));
#219=AXIS2_PLACEMENT_3D('',#283,#284,#285);
#220=SURFACE_SIDE_STYLE('',(#286));
#221=DRAUGHTING_PRE_DEFINED_CURVE_FONT('continuous');
#222=COLOUR_RGB('',0.501960813999176,0.501960813999176,0.501960813999176);
#223=EDGE_LOOP('',(#287));
#224=EDGE_LOOP('',(#288));
#225=AXIS2_PLACEMENT_3D('',#289,#290,#291);
#226=DRAUGHTING_PRE_DEFINED_CURVE_FONT('continuous');
#227=COLOUR_RGB('',0.501960813999176,0.501960813999176,0.501960813999176);
#228=CARTESIAN_POINT('',(-9.86076131526265E-032,8.0,9.79717439317882E-016));
#229=AXIS2_PLACEMENT_3D('',#292,#293,#294);
#231=SURFACE_STYLE_FILL_AREA(#295);
#232=ORIENTED_EDGE('',*,*,#54,.F.);
#233=ORIENTED_EDGE('',*,*,#52,.T.);
#234=CARTESIAN_POINT('',(-1.17872254417933E-015,-2.35744508835865E-015,19.25));
#235=DIRECTION('',(6.12323399573677E-017,1.22464679914735E-016,-1.0));
#236=DIRECTION('',(-1.23259516440783E-032,1.0,1.22464679914735E-016));
#237=SURFACE_STYLE_FILL_AREA(#296);
#238=ORIENTED_EDGE('',*,*,#47,.F.);
#239=ORIENTED_EDGE('',*,*,#70,.T.);
#240=CARTESIAN_POINT('',(-1.08687403424328E-015,-2.17374806848655E-015,17.75));
#241=DIRECTION('',(6.12323399573677E-017,1.22464679914735E-016,-1.0));
#242=DIRECTION('',(-1.23259516440783E-032,1.0,1.22464679914735E-016));
#243=CARTESIAN_POINT('',(9.18485099360515E-017,1.83697019872103E-016,-1.5));
#244=DIRECTION('',(6.12323399573676E-017,1.22464679914735E-016,-1.0));
#245=DIRECTION('',(-1.23259516440783E-032,1.0,1.22464679914735E-016));
#246=CARTESIAN_POINT('',(-2.2655965784226E-015,-4.53119315684521E-015,37.0));
#247=DIRECTION('',(6.12323399573677E-017,1.22464679914735E-016,-1.0));
#248=DIRECTION('',(-1.23259516440783E-032,1.0,1.22464679914735E-016));
#249=SURFACE_STYLE_FILL_AREA(#297);
#250=ORIENTED_EDGE('',*,*,#70,.F.);
#251=ORIENTED_EDGE('',*,*,#45,.T.);
#252=CARTESIAN_POINT('',(9.18485099360514E-017,5.5,-1.5));
#253=DIRECTION('',(6.12323399573677E-017,1.22464679914735E-016,-1.0));
#254=DIRECTION('',(-1.23259516440783E-032,1.0,1.22464679914735E-016));
#255=CARTESIAN_POINT('',(-2.2655965784226E-015,-4.53119315684521E-015,37.0));
#256=DIRECTION('',(6.12323399573677E-017,1.22464679914735E-016,-1.0));
#257=DIRECTION('',(-1.23259516440783E-032,1.0,1.22464679914735E-016));
#258=CARTESIAN_POINT('',(-9.18485099360515E-017,-1.83697019872103E-016,1.5));
#259=DIRECTION('',(6.12323399573677E-017,1.22464679914735E-016,-1.0));
#260=DIRECTION('',(-1.23259516440783E-032,1.0,1.22464679914735E-016));
#261=SURFACE_STYLE_FILL_AREA(#298);
#262=CARTESIAN_POINT('',(0.0,0.0,0.0));
#263=DIRECTION('',(6.12323399573676E-017,1.22464679914735E-016,-1.0));
#264=DIRECTION('',(-1.23259516440783E-032,1.0,1.22464679914735E-016));
#265=SURFACE_STYLE_FILL_AREA(#299);
#266=ORIENTED_EDGE('',*,*,#59,.F.);
#267=ORIENTED_EDGE('',*,*,#75,.T.);
#268=CARTESIAN_POINT('',(-1.01689101063646E-031,8.25,1.01033360929657E-015));
#269=DIRECTION('',(-6.12323399573677E-017,-1.22464679914735E-016,1.0));
#270=DIRECTION('',(1.23259516440783E-032,-1.0,-1.22464679914735E-016));
#271=SURFACE_STYLE_FILL_AREA(#300);
#272=ORIENTED_EDGE('',*,*,#45,.F.);
#273=ORIENTED_EDGE('',*,*,#59,.T.);
#274=CARTESIAN_POINT('',(4.59242549680257E-017,9.18485099360515E-017,-0.75));
#275=DIRECTION('',(6.12323399573676E-017,1.22464679914735E-016,-1.0));
#276=DIRECTION('',(-1.23259516440783E-032,1.0,1.22464679914735E-016));
#277=SURFACE_STYLE_FILL_AREA(#301);
#278=ORIENTED_EDGE('',*,*,#52,.F.);
#279=ORIENTED_EDGE('',*,*,#47,.T.);
#280=CARTESIAN_POINT('',(-2.2655965784226E-015,5.25,37.0));
#281=DIRECTION('',(-6.12323399573677E-017,-1.22464679914735E-016,1.0));
#282=DIRECTION('',(1.23259516440783E-032,-1.0,-1.22464679914735E-016));
#283=CARTESIAN_POINT('',(9.18485099360515E-017,1.83697019872103E-016,-1.5));
#284=DIRECTION('',(6.12323399573677E-017,1.22464679914735E-016,-1.0));
#285=DIRECTION('',(-1.23259516440783E-032,1.0,1.22464679914735E-016));
#286=SURFACE_STYLE_FILL_AREA(#302);
#287=ORIENTED_EDGE('',*,*,#75,.F.);
#288=ORIENTED_EDGE('',*,*,#54,.T.);
#289=CARTESIAN_POINT('',(-4.59242549680257E-017,-9.18485099360515E-017,0.75));
#290=DIRECTION('',(6.12323399573677E-017,1.22464679914735E-016,-1.0));
#291=DIRECTION('',(-1.0,-4.82715273076902E-033,-6.12323399573677E-017));
#292=CARTESIAN_POINT('',(0.0,0.0,0.0));
#293=DIRECTION('',(6.12323399573677E-017,1.22464679914735E-016,-1.0));
#294=DIRECTION('',(-1.23259516440783E-032,1.0,1.22464679914735E-016));
#295=FILL_AREA_STYLE('',(#303));
#296=FILL_AREA_STYLE('',(#304));
#297=FILL_AREA_STYLE('',(#305));
#298=FILL_AREA_STYLE('',(#306));
#299=FILL_AREA_STYLE('',(#307));
#300=FILL_AREA_STYLE('',(#308));
#301=FILL_AREA_STYLE('',(#309));
#302=FILL_AREA_STYLE('',(#310));
#303=FILL_AREA_STYLE_COLOUR('',#311);
#304=FILL_AREA_STYLE_COLOUR('',#312);
#305=FILL_AREA_STYLE_COLOUR('',#313);
#306=FILL_AREA_STYLE_COLOUR('',#314);
#307=FILL_AREA_STYLE_COLOUR('',#315);
#308=FILL_AREA_STYLE_COLOUR('',#316);
#309=FILL_AREA_STYLE_COLOUR('',#317);
#310=FILL_AREA_STYLE_COLOUR('',#318);
#311=COLOUR_RGB('',0.501960813999176,0.501960813999176,0.501960813999176);
#312=COLOUR_RGB('',0.501960813999176,0.501960813999176,0.501960813999176);
#313=COLOUR_RGB('',0.501960813999176,0.501960813999176,0.501960813999176);
#314=COLOUR_RGB('',0.501960813999176,0.501960813999176,0.501960813999176);
#315=COLOUR_RGB('',0.501960813999176,0.501960813999176,0.501960813999176);
#316=COLOUR_RGB('',0.501960813999176,0.501960813999176,0.501960813999176);
#317=COLOUR_RGB('',0.501960813999176,0.501960813999176,0.501960813999176);
#318=COLOUR_RGB('',0.501960813999176,0.501960813999176,0.501960813999176);
ENDSEC;
END-ISO-10303-21;
