ISO-10303-21;
HEADER;
FILE_DESCRIPTION((''),'1');
FILE_NAME('T:/00_BIG-HP\X2\FF71FF6FFF8CFF9F\X0\/\X2\670065B0\X0\2025_HP\X2\FF71FF6FFF8CFF9F4E885B9AFF83FF9EFF70FF80\X0\/01_DXF\X2\FF83FF9EFF70FF80\X0\/LINK\X2\7528FF83FF9EFF70FF80\X0\/CK\X2\FF8DFF6FFF84FF9E30FBFF71FF78FF7EFF7BFF98\X0\/10_\X2\4ED54E0A305275284E38FF8AFF9EFF72FF84FF7CFF98FF70FF7DFF9E\X0\/09_\X2\4E38FF8AFF9EFF72FF847528FF7DFF84FF9AFF70FF84FF7AFF9AFF6FFF84\X0\/EC1209.stp','2024-09-10T01:32:59',(''),(''),'Spatial Interop R21 SP3','Kubotek KeyCreator 2011 V10.0.2 (22737)',' ');
FILE_SCHEMA(('automotive_design'));
ENDSEC;
DATA;
#1=MECHANICAL_DESIGN_GEOMETRIC_PRESENTATION_REPRESENTATION(' ',(#10,#11,#12,#13,#14,#15,#16,#17,#18,#19,#20,#21,#22,#23,#24),#6);
#2=PRODUCT_DEFINITION_CONTEXT('',#25,'design');
#3=APPLICATION_PROTOCOL_DEFINITION('INTERNATIONAL STANDARD','automotive_design',1994,#25);
#4=PRODUCT_CATEGORY_RELATIONSHIP('NONE','NONE',#26,#27);
#5=SHAPE_DEFINITION_REPRESENTATION(#28,#29);
#6= (GEOMETRIC_REPRESENTATION_CONTEXT(3)GLOBAL_UNCERTAINTY_ASSIGNED_CONTEXT((#32))GLOBAL_UNIT_ASSIGNED_CONTEXT((#34,#35,#36))REPRESENTATION_CONTEXT('NONE','WORKSPACE'));
#10=STYLED_ITEM('',(#38),#39);
#11=STYLED_ITEM('',(#40),#41);
#12=STYLED_ITEM('',(#42,#43),#44);
#13=STYLED_ITEM('',(#45,#46),#47);
#14=STYLED_ITEM('',(#48),#49);
#15=STYLED_ITEM('',(#50,#51),#52);
#16=STYLED_ITEM('',(#53,#54),#55);
#17=STYLED_ITEM('',(#56),#57);
#18=STYLED_ITEM('',(#58,#59),#60);
#19=STYLED_ITEM('',(#61),#62);
#20=STYLED_ITEM('',(#63,#64),#65);
#21=STYLED_ITEM('',(#66,#67),#68);
#22=STYLED_ITEM('',(#69),#70);
#23=STYLED_ITEM('',(#71,#72),#73);
#24=STYLED_ITEM('',(#74),#75);
#25=APPLICATION_CONTEXT(' ');
#26=PRODUCT_CATEGORY('part','NONE');
#27=PRODUCT_RELATED_PRODUCT_CATEGORY('detail',' ',(#76));
#28=PRODUCT_DEFINITION_SHAPE('NONE','NONE',#77);
#29=ADVANCED_BREP_SHAPE_REPRESENTATION('240[2]',(#44,#78),#6);
#32=UNCERTAINTY_MEASURE_WITH_UNIT(LENGTH_MEASURE(1.0E-006),#34,'','');
#34= (CONVERSION_BASED_UNIT('MILLIMETRE',#81)LENGTH_UNIT()NAMED_UNIT(#84));
#35= (NAMED_UNIT(#86)PLANE_ANGLE_UNIT()SI_UNIT($,.RADIAN.));
#36= (NAMED_UNIT(#86)SOLID_ANGLE_UNIT()SI_UNIT($,.STERADIAN.));
#38=PRESENTATION_STYLE_ASSIGNMENT((#92));
#39=EDGE_CURVE('240[2]',#93,#93,#94,.T.);
#40=PRESENTATION_STYLE_ASSIGNMENT((#95));
#41=EDGE_CURVE('240[2]',#96,#96,#97,.T.);
#42=PRESENTATION_STYLE_ASSIGNMENT((#98));
#43=PRESENTATION_STYLE_ASSIGNMENT((#99));
#44=MANIFOLD_SOLID_BREP('240[2]',#100);
#45=PRESENTATION_STYLE_ASSIGNMENT((#101));
#46=PRESENTATION_STYLE_ASSIGNMENT((#102));
#47=ADVANCED_FACE('240[2]',(#103,#104),#105,.T.);
#48=PRESENTATION_STYLE_ASSIGNMENT((#106));
#49=EDGE_CURVE('240[2]',#107,#107,#108,.T.);
#50=PRESENTATION_STYLE_ASSIGNMENT((#109));
#51=PRESENTATION_STYLE_ASSIGNMENT((#110));
#52=ADVANCED_FACE('240[2]',(#111,#112),#113,.T.);
#53=PRESENTATION_STYLE_ASSIGNMENT((#114));
#54=PRESENTATION_STYLE_ASSIGNMENT((#115));
#55=ADVANCED_FACE('240[2]',(#116,#117),#118,.T.);
#56=PRESENTATION_STYLE_ASSIGNMENT((#119));
#57=EDGE_CURVE('240[2]',#120,#120,#121,.T.);
#58=PRESENTATION_STYLE_ASSIGNMENT((#122));
#59=PRESENTATION_STYLE_ASSIGNMENT((#123));
#60=ADVANCED_FACE('240[2]',(#124,#125),#126,.T.);
#61=PRESENTATION_STYLE_ASSIGNMENT((#127));
#62=EDGE_CURVE('240[2]',#128,#128,#129,.T.);
#63=PRESENTATION_STYLE_ASSIGNMENT((#130));
#64=PRESENTATION_STYLE_ASSIGNMENT((#131));
#65=ADVANCED_FACE('240[2]',(#132,#133),#134,.T.);
#66=PRESENTATION_STYLE_ASSIGNMENT((#135));
#67=PRESENTATION_STYLE_ASSIGNMENT((#136));
#68=ADVANCED_FACE('240[2]',(#137,#138),#139,.T.);
#69=PRESENTATION_STYLE_ASSIGNMENT((#140));
#70=EDGE_CURVE('240[2]',#141,#141,#142,.T.);
#71=PRESENTATION_STYLE_ASSIGNMENT((#143));
#72=PRESENTATION_STYLE_ASSIGNMENT((#144));
#73=ADVANCED_FACE('240[2]',(#145,#146),#147,.F.);
#74=PRESENTATION_STYLE_ASSIGNMENT((#148));
#75=EDGE_CURVE('240[2]',#149,#149,#150,.T.);
#76=PRODUCT('240[2]','240[2]','PART-240[2]-DESC',(#151));
#77=PRODUCT_DEFINITION('NONE','NONE',#152,#2);
#78=AXIS2_PLACEMENT_3D('',#153,#154,#155);
#81=LENGTH_MEASURE_WITH_UNIT(LENGTH_MEASURE(1.0),#156);
#84=DIMENSIONAL_EXPONENTS(1.0,0.0,0.0,0.0,0.0,0.0,0.0);
#86=DIMENSIONAL_EXPONENTS(0.0,0.0,0.0,0.0,0.0,0.0,0.0);
#92=CURVE_STYLE('',#157,POSITIVE_LENGTH_MEASURE(1000.0),#158);
#93=VERTEX_POINT('',#159);
#94=CIRCLE('',#160,4.5);
#95=CURVE_STYLE('',#161,POSITIVE_LENGTH_MEASURE(1000.0),#162);
#96=VERTEX_POINT('',#163);
#97=CIRCLE('',#164,6.0);
#98=SURFACE_STYLE_USAGE(.BOTH.,#165);
#99=CURVE_STYLE('',#166,POSITIVE_LENGTH_MEASURE(1000.0),#167);
#100=CLOSED_SHELL('',(#65,#55,#47,#52,#60,#68,#73));
#101=SURFACE_STYLE_USAGE(.BOTH.,#168);
#102=CURVE_STYLE('',#169,POSITIVE_LENGTH_MEASURE(1000.0),#170);
#103=FACE_BOUND('',#171,.T.);
#104=FACE_BOUND('',#172,.T.);
#105=TOROIDAL_SURFACE('',#173,5.6875,0.8125);
#106=CURVE_STYLE('',#174,POSITIVE_LENGTH_MEASURE(1000.0),#175);
#107=VERTEX_POINT('',#176);
#108=CIRCLE('',#177,6.0);
#109=SURFACE_STYLE_USAGE(.BOTH.,#178);
#110=CURVE_STYLE('',#179,POSITIVE_LENGTH_MEASURE(1000.0),#180);
#111=FACE_OUTER_BOUND('',#181,.T.);
#112=FACE_BOUND('',#182,.T.);
#113=PLANE('',#183);
#114=SURFACE_STYLE_USAGE(.BOTH.,#184);
#115=CURVE_STYLE('',#185,POSITIVE_LENGTH_MEASURE(1000.0),#186);
#116=FACE_BOUND('',#187,.T.);
#117=FACE_BOUND('',#188,.T.);
#118=CYLINDRICAL_SURFACE('',#189,6.0);
#119=CURVE_STYLE('',#190,POSITIVE_LENGTH_MEASURE(1000.0),#191);
#120=VERTEX_POINT('',#192);
#121=CIRCLE('',#193,6.5);
#122=SURFACE_STYLE_USAGE(.BOTH.,#194);
#123=CURVE_STYLE('',#195,POSITIVE_LENGTH_MEASURE(1000.0),#196);
#124=FACE_BOUND('',#197,.T.);
#125=FACE_BOUND('',#198,.T.);
#126=CYLINDRICAL_SURFACE('',#199,6.5);
#127=CURVE_STYLE('',#200,POSITIVE_LENGTH_MEASURE(1000.0),#201);
#128=VERTEX_POINT('',#202);
#129=CIRCLE('',#203,6.5);
#130=SURFACE_STYLE_USAGE(.BOTH.,#204);
#131=CURVE_STYLE('',#205,POSITIVE_LENGTH_MEASURE(1000.0),#206);
#132=FACE_OUTER_BOUND('',#207,.T.);
#133=FACE_BOUND('',#208,.T.);
#134=PLANE('',#209);
#135=SURFACE_STYLE_USAGE(.BOTH.,#210);
#136=CURVE_STYLE('',#211,POSITIVE_LENGTH_MEASURE(1000.0),#212);
#137=FACE_BOUND('',#213,.T.);
#138=FACE_OUTER_BOUND('',#214,.T.);
#139=PLANE('',#215);
#140=CURVE_STYLE('',#216,POSITIVE_LENGTH_MEASURE(1000.0),#217);
#141=VERTEX_POINT('',#218);
#142=CIRCLE('',#219,4.5);
#143=SURFACE_STYLE_USAGE(.BOTH.,#220);
#144=CURVE_STYLE('',#221,POSITIVE_LENGTH_MEASURE(1000.0),#222);
#145=FACE_BOUND('',#223,.T.);
#146=FACE_BOUND('',#224,.T.);
#147=CYLINDRICAL_SURFACE('',#225,4.5);
#148=CURVE_STYLE('',#226,POSITIVE_LENGTH_MEASURE(1000.0),#227);
#149=VERTEX_POINT('',#228);
#150=CIRCLE('',#229,6.0);
#151=PRODUCT_CONTEXT('',#25,'mechanical');
#152=PRODUCT_DEFINITION_FORMATION_WITH_SPECIFIED_SOURCE(' ','NONE',#76,.NOT_KNOWN.);
#153=CARTESIAN_POINT('',(0.0,0.0,0.0));
#154=DIRECTION('',(0.0,0.0,1.0));
#155=DIRECTION('',(1.0,0.0,0.0));
#156= (NAMED_UNIT(#84)LENGTH_UNIT()SI_UNIT(.MILLI.,.METRE.));
#157=DRAUGHTING_PRE_DEFINED_CURVE_FONT('continuous');
#158=COLOUR_RGB('',0.501960813999176,0.501960813999176,0.501960813999176);
#159=CARTESIAN_POINT('',(-1.86758636869971E-015,4.5,30.5));
#160=AXIS2_PLACEMENT_3D('',#231,#232,#233);
#161=DRAUGHTING_PRE_DEFINED_CURVE_FONT('continuous');
#162=COLOUR_RGB('',0.501960813999176,0.501960813999176,0.501960813999176);
#163=CARTESIAN_POINT('',(-9.18485099360516E-017,6.0,1.5));
#164=AXIS2_PLACEMENT_3D('',#234,#235,#236);
#165=SURFACE_SIDE_STYLE('',(#237));
#166=DRAUGHTING_PRE_DEFINED_CURVE_FONT('continuous');
#167=COLOUR_RGB('',0.501960813999176,0.501960813999176,0.501960813999176);
#168=SURFACE_SIDE_STYLE('',(#238));
#169=DRAUGHTING_PRE_DEFINED_CURVE_FONT('continuous');
#170=COLOUR_RGB('',0.501960813999176,0.501960813999176,0.501960813999176);
#171=EDGE_LOOP('',(#239));
#172=EDGE_LOOP('',(#240));
#173=AXIS2_PLACEMENT_3D('',#241,#242,#243);
#174=DRAUGHTING_PRE_DEFINED_CURVE_FONT('continuous');
#175=COLOUR_RGB('',0.501960813999176,0.501960813999176,0.501960813999176);
#176=CARTESIAN_POINT('',(-7.39557098644699E-032,6.0,7.34788079488412E-016));
#177=AXIS2_PLACEMENT_3D('',#244,#245,#246);
#178=SURFACE_SIDE_STYLE('',(#247));
#179=DRAUGHTING_PRE_DEFINED_CURVE_FONT('continuous');
#180=COLOUR_RGB('',0.501960813999176,0.501960813999176,0.501960813999176);
#181=EDGE_LOOP('',(#248));
#182=EDGE_LOOP('',(#249));
#183=AXIS2_PLACEMENT_3D('',#250,#251,#252);
#184=SURFACE_SIDE_STYLE('',(#253));
#185=DRAUGHTING_PRE_DEFINED_CURVE_FONT('continuous');
#186=COLOUR_RGB('',0.501960813999176,0.501960813999176,0.501960813999176);
#187=EDGE_LOOP('',(#254));
#188=EDGE_LOOP('',(#255));
#189=AXIS2_PLACEMENT_3D('',#256,#257,#258);
#190=DRAUGHTING_PRE_DEFINED_CURVE_FONT('continuous');
#191=COLOUR_RGB('',0.501960813999176,0.501960813999176,0.501960813999176);
#192=CARTESIAN_POINT('',(-8.0118685686509E-032,6.5,7.96020419445779E-016));
#193=AXIS2_PLACEMENT_3D('',#259,#260,#261);
#194=SURFACE_SIDE_STYLE('',(#262));
#195=DRAUGHTING_PRE_DEFINED_CURVE_FONT('continuous');
#196=COLOUR_RGB('',0.501960813999176,0.501960813999176,0.501960813999176);
#197=EDGE_LOOP('',(#263));
#198=EDGE_LOOP('',(#264));
#199=AXIS2_PLACEMENT_3D('',#265,#266,#267);
#200=DRAUGHTING_PRE_DEFINED_CURVE_FONT('continuous');
#201=COLOUR_RGB('',0.501960813999176,0.501960813999176,0.501960813999176);
#202=CARTESIAN_POINT('',(9.18485099360514E-017,6.5,-1.5));
#203=AXIS2_PLACEMENT_3D('',#268,#269,#270);
#204=SURFACE_SIDE_STYLE('',(#271));
#205=DRAUGHTING_PRE_DEFINED_CURVE_FONT('continuous');
#206=COLOUR_RGB('',0.501960813999176,0.501960813999176,0.501960813999176);
#207=EDGE_LOOP('',(#272));
#208=EDGE_LOOP('',(#273));
#209=AXIS2_PLACEMENT_3D('',#274,#275,#276);
#210=SURFACE_SIDE_STYLE('',(#277));
#211=DRAUGHTING_PRE_DEFINED_CURVE_FONT('continuous');
#212=COLOUR_RGB('',0.501960813999176,0.501960813999176,0.501960813999176);
#213=EDGE_LOOP('',(#278));
#214=EDGE_LOOP('',(#279));
#215=AXIS2_PLACEMENT_3D('',#280,#281,#282);
#216=DRAUGHTING_PRE_DEFINED_CURVE_FONT('continuous');
#217=COLOUR_RGB('',0.501960813999176,0.501960813999176,0.501960813999176);
#218=CARTESIAN_POINT('',(9.18485099360514E-017,4.5,-1.5));
#219=AXIS2_PLACEMENT_3D('',#283,#284,#285);
#220=SURFACE_SIDE_STYLE('',(#286));
#221=DRAUGHTING_PRE_DEFINED_CURVE_FONT('continuous');
#222=COLOUR_RGB('',0.501960813999176,0.501960813999176,0.501960813999176);
#223=EDGE_LOOP('',(#287));
#224=EDGE_LOOP('',(#288));
#225=AXIS2_PLACEMENT_3D('',#289,#290,#291);
#226=DRAUGHTING_PRE_DEFINED_CURVE_FONT('continuous');
#227=COLOUR_RGB('',0.501960813999176,0.501960813999176,0.501960813999176);
#228=CARTESIAN_POINT('',(-1.86758636869971E-015,6.0,30.5));
#229=AXIS2_PLACEMENT_3D('',#292,#293,#294);
#231=CARTESIAN_POINT('',(-1.86758636869971E-015,-3.73517273739943E-015,30.5));
#232=DIRECTION('',(6.12323399573677E-017,1.22464679914735E-016,-1.0));
#233=DIRECTION('',(-1.23259516440783E-032,1.0,1.22464679914735E-016));
#234=CARTESIAN_POINT('',(-9.18485099360515E-017,-1.83697019872103E-016,1.5));
#235=DIRECTION('',(6.12323399573677E-017,1.22464679914735E-016,-1.0));
#236=DIRECTION('',(-1.23259516440783E-032,1.0,1.22464679914735E-016));
#237=SURFACE_STYLE_FILL_AREA(#295);
#238=SURFACE_STYLE_FILL_AREA(#296);
#239=ORIENTED_EDGE('',*,*,#49,.F.);
#240=ORIENTED_EDGE('',*,*,#41,.T.);
#241=CARTESIAN_POINT('',(-4.59242549680257E-017,-9.18485099360515E-017,0.75));
#242=DIRECTION('',(6.12323399573677E-017,1.22464679914735E-016,-1.0));
#243=DIRECTION('',(-1.0,-4.82715273076902E-033,-6.12323399573677E-017));
#244=CARTESIAN_POINT('',(0.0,0.0,0.0));
#245=DIRECTION('',(6.12323399573677E-017,1.22464679914735E-016,-1.0));
#246=DIRECTION('',(-1.23259516440783E-032,1.0,1.22464679914735E-016));
#247=SURFACE_STYLE_FILL_AREA(#297);
#248=ORIENTED_EDGE('',*,*,#57,.F.);
#249=ORIENTED_EDGE('',*,*,#49,.T.);
#250=CARTESIAN_POINT('',(-7.70371977754894E-032,6.25,7.65404249467096E-016));
#251=DIRECTION('',(-6.12323399573677E-017,-1.22464679914735E-016,1.0));
#252=DIRECTION('',(1.23259516440783E-032,-1.0,-1.22464679914735E-016));
#253=SURFACE_STYLE_FILL_AREA(#298);
#254=ORIENTED_EDGE('',*,*,#41,.F.);
#255=ORIENTED_EDGE('',*,*,#75,.T.);
#256=CARTESIAN_POINT('',(-9.79717439317883E-016,-1.95943487863576E-015,16.0));
#257=DIRECTION('',(6.12323399573677E-017,1.22464679914735E-016,-1.0));
#258=DIRECTION('',(-1.23259516440783E-032,1.0,1.22464679914735E-016));
#259=CARTESIAN_POINT('',(0.0,0.0,0.0));
#260=DIRECTION('',(6.12323399573677E-017,1.22464679914735E-016,-1.0));
#261=DIRECTION('',(-1.23259516440783E-032,1.0,1.22464679914735E-016));
#262=SURFACE_STYLE_FILL_AREA(#299);
#263=ORIENTED_EDGE('',*,*,#62,.F.);
#264=ORIENTED_EDGE('',*,*,#57,.T.);
#265=CARTESIAN_POINT('',(4.59242549680257E-017,9.18485099360515E-017,-0.75));
#266=DIRECTION('',(6.12323399573677E-017,1.22464679914735E-016,-1.0));
#267=DIRECTION('',(-1.23259516440783E-032,1.0,1.22464679914735E-016));
#268=CARTESIAN_POINT('',(9.18485099360515E-017,1.83697019872103E-016,-1.5));
#269=DIRECTION('',(6.12323399573677E-017,1.22464679914735E-016,-1.0));
#270=DIRECTION('',(-1.23259516440783E-032,1.0,1.22464679914735E-016));
#271=SURFACE_STYLE_FILL_AREA(#300);
#272=ORIENTED_EDGE('',*,*,#75,.F.);
#273=ORIENTED_EDGE('',*,*,#39,.T.);
#274=CARTESIAN_POINT('',(-1.86758636869971E-015,5.25,30.5));
#275=DIRECTION('',(-6.12323399573677E-017,-1.22464679914735E-016,1.0));
#276=DIRECTION('',(1.23259516440783E-032,-1.0,-1.22464679914735E-016));
#277=SURFACE_STYLE_FILL_AREA(#301);
#278=ORIENTED_EDGE('',*,*,#70,.F.);
#279=ORIENTED_EDGE('',*,*,#62,.T.);
#280=CARTESIAN_POINT('',(9.18485099360514E-017,5.5,-1.5));
#281=DIRECTION('',(6.12323399573677E-017,1.22464679914735E-016,-1.0));
#282=DIRECTION('',(-1.23259516440783E-032,1.0,1.22464679914735E-016));
#283=CARTESIAN_POINT('',(9.18485099360515E-017,1.83697019872103E-016,-1.5));
#284=DIRECTION('',(6.12323399573677E-017,1.22464679914735E-016,-1.0));
#285=DIRECTION('',(-1.23259516440783E-032,1.0,1.22464679914735E-016));
#286=SURFACE_STYLE_FILL_AREA(#302);
#287=ORIENTED_EDGE('',*,*,#39,.F.);
#288=ORIENTED_EDGE('',*,*,#70,.T.);
#289=CARTESIAN_POINT('',(-8.87868929381831E-016,-1.77573785876366E-015,14.5));
#290=DIRECTION('',(6.12323399573677E-017,1.22464679914735E-016,-1.0));
#291=DIRECTION('',(-1.23259516440783E-032,1.0,1.22464679914735E-016));
#292=CARTESIAN_POINT('',(-1.86758636869971E-015,-3.73517273739943E-015,30.5));
#293=DIRECTION('',(6.12323399573677E-017,1.22464679914735E-016,-1.0));
#294=DIRECTION('',(-1.23259516440783E-032,1.0,1.22464679914735E-016));
#295=FILL_AREA_STYLE('',(#303));
#296=FILL_AREA_STYLE('',(#304));
#297=FILL_AREA_STYLE('',(#305));
#298=FILL_AREA_STYLE('',(#306));
#299=FILL_AREA_STYLE('',(#307));
#300=FILL_AREA_STYLE('',(#308));
#301=FILL_AREA_STYLE('',(#309));
#302=FILL_AREA_STYLE('',(#310));
#303=FILL_AREA_STYLE_COLOUR('',#311);
#304=FILL_AREA_STYLE_COLOUR('',#312);
#305=FILL_AREA_STYLE_COLOUR('',#313);
#306=FILL_AREA_STYLE_COLOUR('',#314);
#307=FILL_AREA_STYLE_COLOUR('',#315);
#308=FILL_AREA_STYLE_COLOUR('',#316);
#309=FILL_AREA_STYLE_COLOUR('',#317);
#310=FILL_AREA_STYLE_COLOUR('',#318);
#311=COLOUR_RGB('',0.501960813999176,0.501960813999176,0.501960813999176);
#312=COLOUR_RGB('',0.501960813999176,0.501960813999176,0.501960813999176);
#313=COLOUR_RGB('',0.501960813999176,0.501960813999176,0.501960813999176);
#314=COLOUR_RGB('',0.501960813999176,0.501960813999176,0.501960813999176);
#315=COLOUR_RGB('',0.501960813999176,0.501960813999176,0.501960813999176);
#316=COLOUR_RGB('',0.501960813999176,0.501960813999176,0.501960813999176);
#317=COLOUR_RGB('',0.501960813999176,0.501960813999176,0.501960813999176);
#318=COLOUR_RGB('',0.501960813999176,0.501960813999176,0.501960813999176);
ENDSEC;
END-ISO-10303-21;
