ISO-10303-21;
HEADER;
FILE_DESCRIPTION((''),'1');
FILE_NAME('T:/00_BIG-HP\X2\FF71FF6FFF8CFF9F\X0\/\X2\670065B0\X0\2025_HP\X2\FF71FF6FFF8CFF9F4E885B9AFF83FF9EFF70FF80\X0\/01_DXF\X2\FF83FF9EFF70FF80\X0\/LINK\X2\7528FF83FF9EFF70FF80\X0\/CK\X2\FF8DFF6FFF84FF9E30FBFF71FF78FF7EFF7BFF98\X0\/10_\X2\4ED54E0A305275284E38FF8AFF9EFF72FF84FF7CFF98FF70FF7DFF9E\X0\/09_\X2\4E38FF8AFF9EFF72FF847528FF7DFF84FF9AFF70FF84FF7AFF9AFF6FFF84\X0\/EC1208.stp','2024-09-10T01:30:58',(''),(''),'Spatial Interop R21 SP3','Kubotek KeyCreator 2011 V10.0.2 (22737)',' ');
FILE_SCHEMA(('automotive_design'));
ENDSEC;
DATA;
#1=MECHANICAL_DESIGN_GEOMETRIC_PRESENTATION_REPRESENTATION(' ',(#10,#11,#12,#13,#14,#15,#16,#17,#18,#19,#20,#21,#22,#23,#24),#6);
#2=PRODUCT_DEFINITION_CONTEXT('',#25,'design');
#3=APPLICATION_PROTOCOL_DEFINITION('INTERNATIONAL STANDARD','automotive_design',1994,#25);
#4=PRODUCT_CATEGORY_RELATIONSHIP('NONE','NONE',#26,#27);
#5=SHAPE_DEFINITION_REPRESENTATION(#28,#29);
#6= (GEOMETRIC_REPRESENTATION_CONTEXT(3)GLOBAL_UNCERTAINTY_ASSIGNED_CONTEXT((#32))GLOBAL_UNIT_ASSIGNED_CONTEXT((#34,#35,#36))REPRESENTATION_CONTEXT('NONE','WORKSPACE'));
#10=STYLED_ITEM('',(#38),#39);
#11=STYLED_ITEM('',(#40,#41),#42);
#12=STYLED_ITEM('',(#43),#44);
#13=STYLED_ITEM('',(#45),#46);
#14=STYLED_ITEM('',(#47,#48),#49);
#15=STYLED_ITEM('',(#50,#51),#52);
#16=STYLED_ITEM('',(#53),#54);
#17=STYLED_ITEM('',(#55,#56),#57);
#18=STYLED_ITEM('',(#58),#59);
#19=STYLED_ITEM('',(#60),#61);
#20=STYLED_ITEM('',(#62,#63),#64);
#21=STYLED_ITEM('',(#65,#66),#67);
#22=STYLED_ITEM('',(#68),#69);
#23=STYLED_ITEM('',(#70,#71),#72);
#24=STYLED_ITEM('',(#73,#74),#75);
#25=APPLICATION_CONTEXT(' ');
#26=PRODUCT_CATEGORY('part','NONE');
#27=PRODUCT_RELATED_PRODUCT_CATEGORY('detail',' ',(#76));
#28=PRODUCT_DEFINITION_SHAPE('NONE','NONE',#77);
#29=ADVANCED_BREP_SHAPE_REPRESENTATION('240[2]',(#42,#78),#6);
#32=UNCERTAINTY_MEASURE_WITH_UNIT(LENGTH_MEASURE(1.0E-006),#34,'','');
#34= (CONVERSION_BASED_UNIT('MILLIMETRE',#81)LENGTH_UNIT()NAMED_UNIT(#84));
#35= (NAMED_UNIT(#86)PLANE_ANGLE_UNIT()SI_UNIT($,.RADIAN.));
#36= (NAMED_UNIT(#86)SOLID_ANGLE_UNIT()SI_UNIT($,.STERADIAN.));
#38=PRESENTATION_STYLE_ASSIGNMENT((#92));
#39=EDGE_CURVE('240[2]',#93,#93,#94,.T.);
#40=PRESENTATION_STYLE_ASSIGNMENT((#95));
#41=PRESENTATION_STYLE_ASSIGNMENT((#96));
#42=MANIFOLD_SOLID_BREP('240[2]',#97);
#43=PRESENTATION_STYLE_ASSIGNMENT((#98));
#44=EDGE_CURVE('240[2]',#99,#99,#100,.T.);
#45=PRESENTATION_STYLE_ASSIGNMENT((#101));
#46=EDGE_CURVE('240[2]',#102,#102,#103,.T.);
#47=PRESENTATION_STYLE_ASSIGNMENT((#104));
#48=PRESENTATION_STYLE_ASSIGNMENT((#105));
#49=ADVANCED_FACE('240[2]',(#106,#107),#108,.T.);
#50=PRESENTATION_STYLE_ASSIGNMENT((#109));
#51=PRESENTATION_STYLE_ASSIGNMENT((#110));
#52=ADVANCED_FACE('240[2]',(#111,#112),#113,.T.);
#53=PRESENTATION_STYLE_ASSIGNMENT((#114));
#54=EDGE_CURVE('240[2]',#115,#115,#116,.T.);
#55=PRESENTATION_STYLE_ASSIGNMENT((#117));
#56=PRESENTATION_STYLE_ASSIGNMENT((#118));
#57=ADVANCED_FACE('240[2]',(#119,#120),#121,.T.);
#58=PRESENTATION_STYLE_ASSIGNMENT((#122));
#59=EDGE_CURVE('240[2]',#123,#123,#124,.T.);
#60=PRESENTATION_STYLE_ASSIGNMENT((#125));
#61=EDGE_CURVE('240[2]',#126,#126,#127,.T.);
#62=PRESENTATION_STYLE_ASSIGNMENT((#128));
#63=PRESENTATION_STYLE_ASSIGNMENT((#129));
#64=ADVANCED_FACE('240[2]',(#130,#131),#132,.T.);
#65=PRESENTATION_STYLE_ASSIGNMENT((#133));
#66=PRESENTATION_STYLE_ASSIGNMENT((#134));
#67=ADVANCED_FACE('240[2]',(#135,#136),#137,.F.);
#68=PRESENTATION_STYLE_ASSIGNMENT((#138));
#69=EDGE_CURVE('240[2]',#139,#139,#140,.T.);
#70=PRESENTATION_STYLE_ASSIGNMENT((#141));
#71=PRESENTATION_STYLE_ASSIGNMENT((#142));
#72=ADVANCED_FACE('240[2]',(#143,#144),#145,.T.);
#73=PRESENTATION_STYLE_ASSIGNMENT((#146));
#74=PRESENTATION_STYLE_ASSIGNMENT((#147));
#75=ADVANCED_FACE('240[2]',(#148,#149),#150,.T.);
#76=PRODUCT('240[2]','240[2]','PART-240[2]-DESC',(#151));
#77=PRODUCT_DEFINITION('NONE','NONE',#152,#2);
#78=AXIS2_PLACEMENT_3D('',#153,#154,#155);
#81=LENGTH_MEASURE_WITH_UNIT(LENGTH_MEASURE(1.0),#156);
#84=DIMENSIONAL_EXPONENTS(1.0,0.0,0.0,0.0,0.0,0.0,0.0);
#86=DIMENSIONAL_EXPONENTS(0.0,0.0,0.0,0.0,0.0,0.0,0.0);
#92=CURVE_STYLE('',#157,POSITIVE_LENGTH_MEASURE(1000.0),#158);
#93=VERTEX_POINT('',#159);
#94=CIRCLE('',#160,6.0);
#95=SURFACE_STYLE_USAGE(.BOTH.,#161);
#96=CURVE_STYLE('',#162,POSITIVE_LENGTH_MEASURE(1000.0),#163);
#97=CLOSED_SHELL('',(#75,#57,#49,#72,#52,#64,#67));
#98=CURVE_STYLE('',#164,POSITIVE_LENGTH_MEASURE(1000.0),#165);
#99=VERTEX_POINT('',#166);
#100=CIRCLE('',#167,6.5);
#101=CURVE_STYLE('',#168,POSITIVE_LENGTH_MEASURE(1000.0),#169);
#102=VERTEX_POINT('',#170);
#103=CIRCLE('',#171,6.5);
#104=SURFACE_STYLE_USAGE(.BOTH.,#172);
#105=CURVE_STYLE('',#173,POSITIVE_LENGTH_MEASURE(1000.0),#174);
#106=FACE_BOUND('',#175,.T.);
#107=FACE_BOUND('',#176,.T.);
#108=TOROIDAL_SURFACE('',#177,5.6875,0.8125);
#109=SURFACE_STYLE_USAGE(.BOTH.,#178);
#110=CURVE_STYLE('',#179,POSITIVE_LENGTH_MEASURE(1000.0),#180);
#111=FACE_BOUND('',#181,.T.);
#112=FACE_BOUND('',#182,.T.);
#113=CYLINDRICAL_SURFACE('',#183,6.5);
#114=CURVE_STYLE('',#184,POSITIVE_LENGTH_MEASURE(1000.0),#185);
#115=VERTEX_POINT('',#186);
#116=CIRCLE('',#187,6.0);
#117=SURFACE_STYLE_USAGE(.BOTH.,#188);
#118=CURVE_STYLE('',#189,POSITIVE_LENGTH_MEASURE(1000.0),#190);
#119=FACE_BOUND('',#191,.T.);
#120=FACE_BOUND('',#192,.T.);
#121=CYLINDRICAL_SURFACE('',#193,6.0);
#122=CURVE_STYLE('',#194,POSITIVE_LENGTH_MEASURE(1000.0),#195);
#123=VERTEX_POINT('',#196);
#124=CIRCLE('',#197,6.0);
#125=CURVE_STYLE('',#198,POSITIVE_LENGTH_MEASURE(1000.0),#199);
#126=VERTEX_POINT('',#200);
#127=CIRCLE('',#201,4.0);
#128=SURFACE_STYLE_USAGE(.BOTH.,#202);
#129=CURVE_STYLE('',#203,POSITIVE_LENGTH_MEASURE(1000.0),#204);
#130=FACE_BOUND('',#205,.T.);
#131=FACE_OUTER_BOUND('',#206,.T.);
#132=PLANE('',#207);
#133=SURFACE_STYLE_USAGE(.BOTH.,#208);
#134=CURVE_STYLE('',#209,POSITIVE_LENGTH_MEASURE(1000.0),#210);
#135=FACE_BOUND('',#211,.T.);
#136=FACE_BOUND('',#212,.T.);
#137=CYLINDRICAL_SURFACE('',#213,4.0);
#138=CURVE_STYLE('',#214,POSITIVE_LENGTH_MEASURE(1000.0),#215);
#139=VERTEX_POINT('',#216);
#140=CIRCLE('',#217,4.0);
#141=SURFACE_STYLE_USAGE(.BOTH.,#218);
#142=CURVE_STYLE('',#219,POSITIVE_LENGTH_MEASURE(1000.0),#220);
#143=FACE_OUTER_BOUND('',#221,.T.);
#144=FACE_BOUND('',#222,.T.);
#145=PLANE('',#223);
#146=SURFACE_STYLE_USAGE(.BOTH.,#224);
#147=CURVE_STYLE('',#225,POSITIVE_LENGTH_MEASURE(1000.0),#226);
#148=FACE_OUTER_BOUND('',#227,.T.);
#149=FACE_BOUND('',#228,.T.);
#150=PLANE('',#229);
#151=PRODUCT_CONTEXT('',#25,'mechanical');
#152=PRODUCT_DEFINITION_FORMATION_WITH_SPECIFIED_SOURCE(' ','NONE',#76,.NOT_KNOWN.);
#153=CARTESIAN_POINT('',(0.0,0.0,0.0));
#154=DIRECTION('',(0.0,0.0,1.0));
#155=DIRECTION('',(1.0,0.0,0.0));
#156= (NAMED_UNIT(#84)LENGTH_UNIT()SI_UNIT(.MILLI.,.METRE.));
#157=DRAUGHTING_PRE_DEFINED_CURVE_FONT('continuous');
#158=COLOUR_RGB('',0.501960813999176,0.501960813999176,0.501960813999176);
#159=CARTESIAN_POINT('',(-1.86758636869971E-015,6.0,30.5));
#160=AXIS2_PLACEMENT_3D('',#231,#232,#233);
#161=SURFACE_SIDE_STYLE('',(#234));
#162=DRAUGHTING_PRE_DEFINED_CURVE_FONT('continuous');
#163=COLOUR_RGB('',0.501960813999176,0.501960813999176,0.501960813999176);
#164=DRAUGHTING_PRE_DEFINED_CURVE_FONT('continuous');
#165=COLOUR_RGB('',0.501960813999176,0.501960813999176,0.501960813999176);
#166=CARTESIAN_POINT('',(9.18485099360514E-017,6.5,-1.5));
#167=AXIS2_PLACEMENT_3D('',#235,#236,#237);
#168=DRAUGHTING_PRE_DEFINED_CURVE_FONT('continuous');
#169=COLOUR_RGB('',0.501960813999176,0.501960813999176,0.501960813999176);
#170=CARTESIAN_POINT('',(-8.0118685686509E-032,6.5,7.96020419445779E-016));
#171=AXIS2_PLACEMENT_3D('',#238,#239,#240);
#172=SURFACE_SIDE_STYLE('',(#241));
#173=DRAUGHTING_PRE_DEFINED_CURVE_FONT('continuous');
#174=COLOUR_RGB('',0.501960813999176,0.501960813999176,0.501960813999176);
#175=EDGE_LOOP('',(#242));
#176=EDGE_LOOP('',(#243));
#177=AXIS2_PLACEMENT_3D('',#244,#245,#246);
#178=SURFACE_SIDE_STYLE('',(#247));
#179=DRAUGHTING_PRE_DEFINED_CURVE_FONT('continuous');
#180=COLOUR_RGB('',0.501960813999176,0.501960813999176,0.501960813999176);
#181=EDGE_LOOP('',(#248));
#182=EDGE_LOOP('',(#249));
#183=AXIS2_PLACEMENT_3D('',#250,#251,#252);
#184=DRAUGHTING_PRE_DEFINED_CURVE_FONT('continuous');
#185=COLOUR_RGB('',0.501960813999176,0.501960813999176,0.501960813999176);
#186=CARTESIAN_POINT('',(-9.18485099360516E-017,6.0,1.5));
#187=AXIS2_PLACEMENT_3D('',#253,#254,#255);
#188=SURFACE_SIDE_STYLE('',(#256));
#189=DRAUGHTING_PRE_DEFINED_CURVE_FONT('continuous');
#190=COLOUR_RGB('',0.501960813999176,0.501960813999176,0.501960813999176);
#191=EDGE_LOOP('',(#257));
#192=EDGE_LOOP('',(#258));
#193=AXIS2_PLACEMENT_3D('',#259,#260,#261);
#194=DRAUGHTING_PRE_DEFINED_CURVE_FONT('continuous');
#195=COLOUR_RGB('',0.501960813999176,0.501960813999176,0.501960813999176);
#196=CARTESIAN_POINT('',(-7.39557098644699E-032,6.0,7.34788079488412E-016));
#197=AXIS2_PLACEMENT_3D('',#262,#263,#264);
#198=DRAUGHTING_PRE_DEFINED_CURVE_FONT('continuous');
#199=COLOUR_RGB('',0.501960813999176,0.501960813999176,0.501960813999176);
#200=CARTESIAN_POINT('',(9.18485099360514E-017,4.0,-1.5));
#201=AXIS2_PLACEMENT_3D('',#265,#266,#267);
#202=SURFACE_SIDE_STYLE('',(#268));
#203=DRAUGHTING_PRE_DEFINED_CURVE_FONT('continuous');
#204=COLOUR_RGB('',0.501960813999176,0.501960813999176,0.501960813999176);
#205=EDGE_LOOP('',(#269));
#206=EDGE_LOOP('',(#270));
#207=AXIS2_PLACEMENT_3D('',#271,#272,#273);
#208=SURFACE_SIDE_STYLE('',(#274));
#209=DRAUGHTING_PRE_DEFINED_CURVE_FONT('continuous');
#210=COLOUR_RGB('',0.501960813999176,0.501960813999176,0.501960813999176);
#211=EDGE_LOOP('',(#275));
#212=EDGE_LOOP('',(#276));
#213=AXIS2_PLACEMENT_3D('',#277,#278,#279);
#214=DRAUGHTING_PRE_DEFINED_CURVE_FONT('continuous');
#215=COLOUR_RGB('',0.501960813999176,0.501960813999176,0.501960813999176);
#216=CARTESIAN_POINT('',(-1.86758636869971E-015,3.99999999999999,30.5));
#217=AXIS2_PLACEMENT_3D('',#280,#281,#282);
#218=SURFACE_SIDE_STYLE('',(#283));
#219=DRAUGHTING_PRE_DEFINED_CURVE_FONT('continuous');
#220=COLOUR_RGB('',0.501960813999176,0.501960813999176,0.501960813999176);
#221=EDGE_LOOP('',(#284));
#222=EDGE_LOOP('',(#285));
#223=AXIS2_PLACEMENT_3D('',#286,#287,#288);
#224=SURFACE_SIDE_STYLE('',(#289));
#225=DRAUGHTING_PRE_DEFINED_CURVE_FONT('continuous');
#226=COLOUR_RGB('',0.501960813999176,0.501960813999176,0.501960813999176);
#227=EDGE_LOOP('',(#290));
#228=EDGE_LOOP('',(#291));
#229=AXIS2_PLACEMENT_3D('',#292,#293,#294);
#231=CARTESIAN_POINT('',(-1.86758636869971E-015,-3.73517273739943E-015,30.5));
#232=DIRECTION('',(6.12323399573677E-017,1.22464679914735E-016,-1.0));
#233=DIRECTION('',(-1.23259516440783E-032,1.0,1.22464679914735E-016));
#234=SURFACE_STYLE_FILL_AREA(#295);
#235=CARTESIAN_POINT('',(9.18485099360515E-017,1.83697019872103E-016,-1.5));
#236=DIRECTION('',(6.12323399573677E-017,1.22464679914735E-016,-1.0));
#237=DIRECTION('',(-1.23259516440783E-032,1.0,1.22464679914735E-016));
#238=CARTESIAN_POINT('',(0.0,0.0,0.0));
#239=DIRECTION('',(6.12323399573677E-017,1.22464679914735E-016,-1.0));
#240=DIRECTION('',(-1.23259516440783E-032,1.0,1.22464679914735E-016));
#241=SURFACE_STYLE_FILL_AREA(#296);
#242=ORIENTED_EDGE('',*,*,#59,.F.);
#243=ORIENTED_EDGE('',*,*,#54,.T.);
#244=CARTESIAN_POINT('',(-4.59242549680257E-017,-9.18485099360515E-017,0.75));
#245=DIRECTION('',(6.12323399573677E-017,1.22464679914735E-016,-1.0));
#246=DIRECTION('',(-1.0,-4.82715273076902E-033,-6.12323399573677E-017));
#247=SURFACE_STYLE_FILL_AREA(#297);
#248=ORIENTED_EDGE('',*,*,#44,.F.);
#249=ORIENTED_EDGE('',*,*,#46,.T.);
#250=CARTESIAN_POINT('',(4.59242549680257E-017,9.18485099360515E-017,-0.75));
#251=DIRECTION('',(6.12323399573677E-017,1.22464679914735E-016,-1.0));
#252=DIRECTION('',(-1.23259516440783E-032,1.0,1.22464679914735E-016));
#253=CARTESIAN_POINT('',(-9.18485099360515E-017,-1.83697019872103E-016,1.5));
#254=DIRECTION('',(6.12323399573677E-017,1.22464679914735E-016,-1.0));
#255=DIRECTION('',(-1.23259516440783E-032,1.0,1.22464679914735E-016));
#256=SURFACE_STYLE_FILL_AREA(#298);
#257=ORIENTED_EDGE('',*,*,#54,.F.);
#258=ORIENTED_EDGE('',*,*,#39,.T.);
#259=CARTESIAN_POINT('',(-9.79717439317883E-016,-1.95943487863576E-015,16.0));
#260=DIRECTION('',(6.12323399573677E-017,1.22464679914735E-016,-1.0));
#261=DIRECTION('',(-1.23259516440783E-032,1.0,1.22464679914735E-016));
#262=CARTESIAN_POINT('',(0.0,0.0,0.0));
#263=DIRECTION('',(6.12323399573677E-017,1.22464679914735E-016,-1.0));
#264=DIRECTION('',(-1.23259516440783E-032,1.0,1.22464679914735E-016));
#265=CARTESIAN_POINT('',(9.18485099360515E-017,1.83697019872103E-016,-1.5));
#266=DIRECTION('',(6.12323399573677E-017,1.22464679914735E-016,-1.0));
#267=DIRECTION('',(-1.23259516440783E-032,1.0,1.22464679914735E-016));
#268=SURFACE_STYLE_FILL_AREA(#299);
#269=ORIENTED_EDGE('',*,*,#61,.F.);
#270=ORIENTED_EDGE('',*,*,#44,.T.);
#271=CARTESIAN_POINT('',(9.18485099360514E-017,5.25,-1.5));
#272=DIRECTION('',(6.12323399573677E-017,1.22464679914735E-016,-1.0));
#273=DIRECTION('',(-1.23259516440783E-032,1.0,1.22464679914735E-016));
#274=SURFACE_STYLE_FILL_AREA(#300);
#275=ORIENTED_EDGE('',*,*,#69,.F.);
#276=ORIENTED_EDGE('',*,*,#61,.T.);
#277=CARTESIAN_POINT('',(-8.87868929381831E-016,-1.77573785876366E-015,14.5));
#278=DIRECTION('',(6.12323399573677E-017,1.22464679914735E-016,-1.0));
#279=DIRECTION('',(-1.23259516440783E-032,1.0,1.22464679914735E-016));
#280=CARTESIAN_POINT('',(-1.86758636869971E-015,-3.73517273739943E-015,30.5));
#281=DIRECTION('',(6.12323399573677E-017,1.22464679914735E-016,-1.0));
#282=DIRECTION('',(-1.23259516440783E-032,1.0,1.22464679914735E-016));
#283=SURFACE_STYLE_FILL_AREA(#301);
#284=ORIENTED_EDGE('',*,*,#46,.F.);
#285=ORIENTED_EDGE('',*,*,#59,.T.);
#286=CARTESIAN_POINT('',(-7.70371977754894E-032,6.25,7.65404249467096E-016));
#287=DIRECTION('',(-6.12323399573677E-017,-1.22464679914735E-016,1.0));
#288=DIRECTION('',(1.23259516440783E-032,-1.0,-1.22464679914735E-016));
#289=SURFACE_STYLE_FILL_AREA(#302);
#290=ORIENTED_EDGE('',*,*,#39,.F.);
#291=ORIENTED_EDGE('',*,*,#69,.T.);
#292=CARTESIAN_POINT('',(-1.86758636869971E-015,4.99999999999999,30.5));
#293=DIRECTION('',(-6.12323399573677E-017,-1.22464679914735E-016,1.0));
#294=DIRECTION('',(1.23259516440783E-032,-1.0,-1.22464679914735E-016));
#295=FILL_AREA_STYLE('',(#303));
#296=FILL_AREA_STYLE('',(#304));
#297=FILL_AREA_STYLE('',(#305));
#298=FILL_AREA_STYLE('',(#306));
#299=FILL_AREA_STYLE('',(#307));
#300=FILL_AREA_STYLE('',(#308));
#301=FILL_AREA_STYLE('',(#309));
#302=FILL_AREA_STYLE('',(#310));
#303=FILL_AREA_STYLE_COLOUR('',#311);
#304=FILL_AREA_STYLE_COLOUR('',#312);
#305=FILL_AREA_STYLE_COLOUR('',#313);
#306=FILL_AREA_STYLE_COLOUR('',#314);
#307=FILL_AREA_STYLE_COLOUR('',#315);
#308=FILL_AREA_STYLE_COLOUR('',#316);
#309=FILL_AREA_STYLE_COLOUR('',#317);
#310=FILL_AREA_STYLE_COLOUR('',#318);
#311=COLOUR_RGB('',0.501960813999176,0.501960813999176,0.501960813999176);
#312=COLOUR_RGB('',0.501960813999176,0.501960813999176,0.501960813999176);
#313=COLOUR_RGB('',0.501960813999176,0.501960813999176,0.501960813999176);
#314=COLOUR_RGB('',0.501960813999176,0.501960813999176,0.501960813999176);
#315=COLOUR_RGB('',0.501960813999176,0.501960813999176,0.501960813999176);
#316=COLOUR_RGB('',0.501960813999176,0.501960813999176,0.501960813999176);
#317=COLOUR_RGB('',0.501960813999176,0.501960813999176,0.501960813999176);
#318=COLOUR_RGB('',0.501960813999176,0.501960813999176,0.501960813999176);
ENDSEC;
END-ISO-10303-21;
