ISO-10303-21;
HEADER;
FILE_DESCRIPTION((''),'1');
FILE_NAME('T:/00_BIG-HP\X2\FF71FF6FFF8CFF9F\X0\/\X2\670065B0\X0\2025_HP\X2\FF71FF6FFF8CFF9F4E885B9AFF83FF9EFF70FF80\X0\/01_DXF\X2\FF83FF9EFF70FF80\X0\/LINK\X2\7528FF83FF9EFF70FF80\X0\/CK\X2\FF8DFF6FFF84FF9E30FBFF71FF78FF7EFF7BFF98\X0\/10_\X2\4ED54E0A305275284E38FF8AFF9EFF72FF84FF7CFF98FF70FF7DFF9E\X0\/09_\X2\4E38FF8AFF9EFF72FF847528FF7DFF84FF9AFF70FF84FF7AFF9AFF6FFF84\X0\/EC1207.stp','2024-09-10T01:11:54',(''),(''),'Spatial Interop R21 SP3','Kubotek KeyCreator 2011 V10.0.2 (22737)',' ');
FILE_SCHEMA(('automotive_design'));
ENDSEC;
DATA;
#1=MECHANICAL_DESIGN_GEOMETRIC_PRESENTATION_REPRESENTATION(' ',(#10,#11,#12,#13,#14,#15,#16,#17,#18,#19,#20,#21,#22,#23,#24),#6);
#2=PRODUCT_DEFINITION_CONTEXT('',#25,'design');
#3=APPLICATION_PROTOCOL_DEFINITION('INTERNATIONAL STANDARD','automotive_design',1994,#25);
#4=PRODUCT_CATEGORY_RELATIONSHIP('NONE','NONE',#26,#27);
#5=SHAPE_DEFINITION_REPRESENTATION(#28,#29);
#6= (GEOMETRIC_REPRESENTATION_CONTEXT(3)GLOBAL_UNCERTAINTY_ASSIGNED_CONTEXT((#32))GLOBAL_UNIT_ASSIGNED_CONTEXT((#34,#35,#36))REPRESENTATION_CONTEXT('NONE','WORKSPACE'));
#10=STYLED_ITEM('',(#38,#39),#40);
#11=STYLED_ITEM('',(#41,#42),#43);
#12=STYLED_ITEM('',(#44,#45),#46);
#13=STYLED_ITEM('',(#47,#48),#49);
#14=STYLED_ITEM('',(#50),#51);
#15=STYLED_ITEM('',(#52),#53);
#16=STYLED_ITEM('',(#54),#55);
#17=STYLED_ITEM('',(#56,#57),#58);
#18=STYLED_ITEM('',(#59),#60);
#19=STYLED_ITEM('',(#61),#62);
#20=STYLED_ITEM('',(#63,#64),#65);
#21=STYLED_ITEM('',(#66,#67),#68);
#22=STYLED_ITEM('',(#69),#70);
#23=STYLED_ITEM('',(#71),#72);
#24=STYLED_ITEM('',(#73,#74),#75);
#25=APPLICATION_CONTEXT(' ');
#26=PRODUCT_CATEGORY('part','NONE');
#27=PRODUCT_RELATED_PRODUCT_CATEGORY('detail',' ',(#76));
#28=PRODUCT_DEFINITION_SHAPE('NONE','NONE',#77);
#29=ADVANCED_BREP_SHAPE_REPRESENTATION('240[2]',(#43,#78),#6);
#32=UNCERTAINTY_MEASURE_WITH_UNIT(LENGTH_MEASURE(1.0E-006),#34,'','');
#34= (CONVERSION_BASED_UNIT('MILLIMETRE',#81)LENGTH_UNIT()NAMED_UNIT(#84));
#35= (NAMED_UNIT(#86)PLANE_ANGLE_UNIT()SI_UNIT($,.RADIAN.));
#36= (NAMED_UNIT(#86)SOLID_ANGLE_UNIT()SI_UNIT($,.STERADIAN.));
#38=PRESENTATION_STYLE_ASSIGNMENT((#92));
#39=PRESENTATION_STYLE_ASSIGNMENT((#93));
#40=ADVANCED_FACE('240[2]',(#94,#95),#96,.T.);
#41=PRESENTATION_STYLE_ASSIGNMENT((#97));
#42=PRESENTATION_STYLE_ASSIGNMENT((#98));
#43=MANIFOLD_SOLID_BREP('240[2]',#99);
#44=PRESENTATION_STYLE_ASSIGNMENT((#100));
#45=PRESENTATION_STYLE_ASSIGNMENT((#101));
#46=ADVANCED_FACE('240[2]',(#102,#103),#104,.F.);
#47=PRESENTATION_STYLE_ASSIGNMENT((#105));
#48=PRESENTATION_STYLE_ASSIGNMENT((#106));
#49=ADVANCED_FACE('240[2]',(#107,#108),#109,.T.);
#50=PRESENTATION_STYLE_ASSIGNMENT((#110));
#51=EDGE_CURVE('240[2]',#111,#111,#112,.T.);
#52=PRESENTATION_STYLE_ASSIGNMENT((#113));
#53=EDGE_CURVE('240[2]',#114,#114,#115,.T.);
#54=PRESENTATION_STYLE_ASSIGNMENT((#116));
#55=EDGE_CURVE('240[2]',#117,#117,#118,.T.);
#56=PRESENTATION_STYLE_ASSIGNMENT((#119));
#57=PRESENTATION_STYLE_ASSIGNMENT((#120));
#58=ADVANCED_FACE('240[2]',(#121,#122),#123,.T.);
#59=PRESENTATION_STYLE_ASSIGNMENT((#124));
#60=EDGE_CURVE('240[2]',#125,#125,#126,.T.);
#61=PRESENTATION_STYLE_ASSIGNMENT((#127));
#62=EDGE_CURVE('240[2]',#128,#128,#129,.T.);
#63=PRESENTATION_STYLE_ASSIGNMENT((#130));
#64=PRESENTATION_STYLE_ASSIGNMENT((#131));
#65=ADVANCED_FACE('240[2]',(#132,#133),#134,.T.);
#66=PRESENTATION_STYLE_ASSIGNMENT((#135));
#67=PRESENTATION_STYLE_ASSIGNMENT((#136));
#68=ADVANCED_FACE('240[2]',(#137,#138),#139,.T.);
#69=PRESENTATION_STYLE_ASSIGNMENT((#140));
#70=EDGE_CURVE('240[2]',#141,#141,#142,.T.);
#71=PRESENTATION_STYLE_ASSIGNMENT((#143));
#72=EDGE_CURVE('240[2]',#144,#144,#145,.T.);
#73=PRESENTATION_STYLE_ASSIGNMENT((#146));
#74=PRESENTATION_STYLE_ASSIGNMENT((#147));
#75=ADVANCED_FACE('240[2]',(#148,#149),#150,.T.);
#76=PRODUCT('240[2]','240[2]','PART-240[2]-DESC',(#151));
#77=PRODUCT_DEFINITION('NONE','NONE',#152,#2);
#78=AXIS2_PLACEMENT_3D('',#153,#154,#155);
#81=LENGTH_MEASURE_WITH_UNIT(LENGTH_MEASURE(1.0),#156);
#84=DIMENSIONAL_EXPONENTS(1.0,0.0,0.0,0.0,0.0,0.0,0.0);
#86=DIMENSIONAL_EXPONENTS(0.0,0.0,0.0,0.0,0.0,0.0,0.0);
#92=SURFACE_STYLE_USAGE(.BOTH.,#157);
#93=CURVE_STYLE('',#158,POSITIVE_LENGTH_MEASURE(1000.0),#159);
#94=FACE_BOUND('',#160,.T.);
#95=FACE_OUTER_BOUND('',#161,.T.);
#96=PLANE('',#162);
#97=SURFACE_STYLE_USAGE(.BOTH.,#163);
#98=CURVE_STYLE('',#164,POSITIVE_LENGTH_MEASURE(1000.0),#165);
#99=CLOSED_SHELL('',(#58,#68,#75,#49,#65,#40,#46));
#100=SURFACE_STYLE_USAGE(.BOTH.,#166);
#101=CURVE_STYLE('',#167,POSITIVE_LENGTH_MEASURE(1000.0),#168);
#102=FACE_BOUND('',#169,.T.);
#103=FACE_BOUND('',#170,.T.);
#104=CYLINDRICAL_SURFACE('',#171,3.5);
#105=SURFACE_STYLE_USAGE(.BOTH.,#172);
#106=CURVE_STYLE('',#173,POSITIVE_LENGTH_MEASURE(1000.0),#174);
#107=FACE_OUTER_BOUND('',#175,.T.);
#108=FACE_BOUND('',#176,.T.);
#109=PLANE('',#177);
#110=CURVE_STYLE('',#178,POSITIVE_LENGTH_MEASURE(1000.0),#179);
#111=VERTEX_POINT('',#180);
#112=CIRCLE('',#181,6.0);
#113=CURVE_STYLE('',#182,POSITIVE_LENGTH_MEASURE(1000.0),#183);
#114=VERTEX_POINT('',#184);
#115=CIRCLE('',#185,3.5);
#116=CURVE_STYLE('',#186,POSITIVE_LENGTH_MEASURE(1000.0),#187);
#117=VERTEX_POINT('',#188);
#118=CIRCLE('',#189,6.5);
#119=SURFACE_STYLE_USAGE(.BOTH.,#190);
#120=CURVE_STYLE('',#191,POSITIVE_LENGTH_MEASURE(1000.0),#192);
#121=FACE_OUTER_BOUND('',#193,.T.);
#122=FACE_BOUND('',#194,.T.);
#123=PLANE('',#195);
#124=CURVE_STYLE('',#196,POSITIVE_LENGTH_MEASURE(1000.0),#197);
#125=VERTEX_POINT('',#198);
#126=CIRCLE('',#199,6.0);
#127=CURVE_STYLE('',#200,POSITIVE_LENGTH_MEASURE(1000.0),#201);
#128=VERTEX_POINT('',#202);
#129=CIRCLE('',#203,6.5);
#130=SURFACE_STYLE_USAGE(.BOTH.,#204);
#131=CURVE_STYLE('',#205,POSITIVE_LENGTH_MEASURE(1000.0),#206);
#132=FACE_BOUND('',#207,.T.);
#133=FACE_BOUND('',#208,.T.);
#134=CYLINDRICAL_SURFACE('',#209,6.5);
#135=SURFACE_STYLE_USAGE(.BOTH.,#210);
#136=CURVE_STYLE('',#211,POSITIVE_LENGTH_MEASURE(1000.0),#212);
#137=FACE_BOUND('',#213,.T.);
#138=FACE_BOUND('',#214,.T.);
#139=CYLINDRICAL_SURFACE('',#215,6.0);
#140=CURVE_STYLE('',#216,POSITIVE_LENGTH_MEASURE(1000.0),#217);
#141=VERTEX_POINT('',#218);
#142=CIRCLE('',#219,6.0);
#143=CURVE_STYLE('',#220,POSITIVE_LENGTH_MEASURE(1000.0),#221);
#144=VERTEX_POINT('',#222);
#145=CIRCLE('',#223,3.5);
#146=SURFACE_STYLE_USAGE(.BOTH.,#224);
#147=CURVE_STYLE('',#225,POSITIVE_LENGTH_MEASURE(1000.0),#226);
#148=FACE_BOUND('',#227,.T.);
#149=FACE_BOUND('',#228,.T.);
#150=TOROIDAL_SURFACE('',#229,5.6875,0.8125);
#151=PRODUCT_CONTEXT('',#25,'mechanical');
#152=PRODUCT_DEFINITION_FORMATION_WITH_SPECIFIED_SOURCE(' ','NONE',#76,.NOT_KNOWN.);
#153=CARTESIAN_POINT('',(0.0,0.0,0.0));
#154=DIRECTION('',(0.0,0.0,1.0));
#155=DIRECTION('',(1.0,0.0,0.0));
#156= (NAMED_UNIT(#84)LENGTH_UNIT()SI_UNIT(.MILLI.,.METRE.));
#157=SURFACE_SIDE_STYLE('',(#231));
#158=DRAUGHTING_PRE_DEFINED_CURVE_FONT('continuous');
#159=COLOUR_RGB('',0.501960813999176,0.501960813999176,0.501960813999176);
#160=EDGE_LOOP('',(#232));
#161=EDGE_LOOP('',(#233));
#162=AXIS2_PLACEMENT_3D('',#234,#235,#236);
#163=SURFACE_SIDE_STYLE('',(#237));
#164=DRAUGHTING_PRE_DEFINED_CURVE_FONT('continuous');
#165=COLOUR_RGB('',0.501960813999176,0.501960813999176,0.501960813999176);
#166=SURFACE_SIDE_STYLE('',(#238));
#167=DRAUGHTING_PRE_DEFINED_CURVE_FONT('continuous');
#168=COLOUR_RGB('',0.501960813999176,0.501960813999176,0.501960813999176);
#169=EDGE_LOOP('',(#239));
#170=EDGE_LOOP('',(#240));
#171=AXIS2_PLACEMENT_3D('',#241,#242,#243);
#172=SURFACE_SIDE_STYLE('',(#244));
#173=DRAUGHTING_PRE_DEFINED_CURVE_FONT('continuous');
#174=COLOUR_RGB('',0.501960813999176,0.501960813999176,0.501960813999176);
#175=EDGE_LOOP('',(#245));
#176=EDGE_LOOP('',(#246));
#177=AXIS2_PLACEMENT_3D('',#247,#248,#249);
#178=DRAUGHTING_PRE_DEFINED_CURVE_FONT('continuous');
#179=COLOUR_RGB('',0.501960813999176,0.501960813999176,0.501960813999176);
#180=CARTESIAN_POINT('',(-1.86758636869971E-015,6.0,30.5));
#181=AXIS2_PLACEMENT_3D('',#250,#251,#252);
#182=DRAUGHTING_PRE_DEFINED_CURVE_FONT('continuous');
#183=COLOUR_RGB('',0.501960813999176,0.501960813999176,0.501960813999176);
#184=CARTESIAN_POINT('',(-1.86758636869971E-015,3.5,30.5));
#185=AXIS2_PLACEMENT_3D('',#253,#254,#255);
#186=DRAUGHTING_PRE_DEFINED_CURVE_FONT('continuous');
#187=COLOUR_RGB('',0.501960813999176,0.501960813999176,0.501960813999176);
#188=CARTESIAN_POINT('',(-8.0118685686509E-032,6.5,7.96020419445779E-016));
#189=AXIS2_PLACEMENT_3D('',#256,#257,#258);
#190=SURFACE_SIDE_STYLE('',(#259));
#191=DRAUGHTING_PRE_DEFINED_CURVE_FONT('continuous');
#192=COLOUR_RGB('',0.501960813999176,0.501960813999176,0.501960813999176);
#193=EDGE_LOOP('',(#260));
#194=EDGE_LOOP('',(#261));
#195=AXIS2_PLACEMENT_3D('',#262,#263,#264);
#196=DRAUGHTING_PRE_DEFINED_CURVE_FONT('continuous');
#197=COLOUR_RGB('',0.501960813999176,0.501960813999176,0.501960813999176);
#198=CARTESIAN_POINT('',(-7.39557098644699E-032,6.0,7.34788079488412E-016));
#199=AXIS2_PLACEMENT_3D('',#265,#266,#267);
#200=DRAUGHTING_PRE_DEFINED_CURVE_FONT('continuous');
#201=COLOUR_RGB('',0.501960813999176,0.501960813999176,0.501960813999176);
#202=CARTESIAN_POINT('',(9.18485099360514E-017,6.5,-1.5));
#203=AXIS2_PLACEMENT_3D('',#268,#269,#270);
#204=SURFACE_SIDE_STYLE('',(#271));
#205=DRAUGHTING_PRE_DEFINED_CURVE_FONT('continuous');
#206=COLOUR_RGB('',0.501960813999176,0.501960813999176,0.501960813999176);
#207=EDGE_LOOP('',(#272));
#208=EDGE_LOOP('',(#273));
#209=AXIS2_PLACEMENT_3D('',#274,#275,#276);
#210=SURFACE_SIDE_STYLE('',(#277));
#211=DRAUGHTING_PRE_DEFINED_CURVE_FONT('continuous');
#212=COLOUR_RGB('',0.501960813999176,0.501960813999176,0.501960813999176);
#213=EDGE_LOOP('',(#278));
#214=EDGE_LOOP('',(#279));
#215=AXIS2_PLACEMENT_3D('',#280,#281,#282);
#216=DRAUGHTING_PRE_DEFINED_CURVE_FONT('continuous');
#217=COLOUR_RGB('',0.501960813999176,0.501960813999176,0.501960813999176);
#218=CARTESIAN_POINT('',(-9.18485099360516E-017,6.0,1.5));
#219=AXIS2_PLACEMENT_3D('',#283,#284,#285);
#220=DRAUGHTING_PRE_DEFINED_CURVE_FONT('continuous');
#221=COLOUR_RGB('',0.501960813999176,0.501960813999176,0.501960813999176);
#222=CARTESIAN_POINT('',(9.18485099360514E-017,3.5,-1.5));
#223=AXIS2_PLACEMENT_3D('',#286,#287,#288);
#224=SURFACE_SIDE_STYLE('',(#289));
#225=DRAUGHTING_PRE_DEFINED_CURVE_FONT('continuous');
#226=COLOUR_RGB('',0.501960813999176,0.501960813999176,0.501960813999176);
#227=EDGE_LOOP('',(#290));
#228=EDGE_LOOP('',(#291));
#229=AXIS2_PLACEMENT_3D('',#292,#293,#294);
#231=SURFACE_STYLE_FILL_AREA(#295);
#232=ORIENTED_EDGE('',*,*,#72,.F.);
#233=ORIENTED_EDGE('',*,*,#62,.T.);
#234=CARTESIAN_POINT('',(9.18485099360514E-017,5.0,-1.5));
#235=DIRECTION('',(6.12323399573677E-017,1.22464679914735E-016,-1.0));
#236=DIRECTION('',(-1.23259516440783E-032,1.0,1.22464679914735E-016));
#237=SURFACE_STYLE_FILL_AREA(#296);
#238=SURFACE_STYLE_FILL_AREA(#297);
#239=ORIENTED_EDGE('',*,*,#53,.F.);
#240=ORIENTED_EDGE('',*,*,#72,.T.);
#241=CARTESIAN_POINT('',(-8.87868929381831E-016,-1.77573785876366E-015,14.5));
#242=DIRECTION('',(6.12323399573677E-017,1.22464679914735E-016,-1.0));
#243=DIRECTION('',(-1.23259516440783E-032,1.0,1.22464679914735E-016));
#244=SURFACE_STYLE_FILL_AREA(#298);
#245=ORIENTED_EDGE('',*,*,#55,.F.);
#246=ORIENTED_EDGE('',*,*,#60,.T.);
#247=CARTESIAN_POINT('',(-7.70371977754894E-032,6.25,7.65404249467096E-016));
#248=DIRECTION('',(-6.12323399573677E-017,-1.22464679914735E-016,1.0));
#249=DIRECTION('',(1.23259516440783E-032,-1.0,-1.22464679914735E-016));
#250=CARTESIAN_POINT('',(-1.86758636869971E-015,-3.73517273739943E-015,30.5));
#251=DIRECTION('',(6.12323399573677E-017,1.22464679914735E-016,-1.0));
#252=DIRECTION('',(-1.23259516440783E-032,1.0,1.22464679914735E-016));
#253=CARTESIAN_POINT('',(-1.86758636869971E-015,-3.73517273739943E-015,30.5));
#254=DIRECTION('',(6.12323399573677E-017,1.22464679914735E-016,-1.0));
#255=DIRECTION('',(-1.23259516440783E-032,1.0,1.22464679914735E-016));
#256=CARTESIAN_POINT('',(0.0,0.0,0.0));
#257=DIRECTION('',(6.12323399573677E-017,1.22464679914735E-016,-1.0));
#258=DIRECTION('',(-1.23259516440783E-032,1.0,1.22464679914735E-016));
#259=SURFACE_STYLE_FILL_AREA(#299);
#260=ORIENTED_EDGE('',*,*,#51,.F.);
#261=ORIENTED_EDGE('',*,*,#53,.T.);
#262=CARTESIAN_POINT('',(-1.86758636869971E-015,4.75,30.5));
#263=DIRECTION('',(-6.12323399573677E-017,-1.22464679914735E-016,1.0));
#264=DIRECTION('',(1.23259516440783E-032,-1.0,-1.22464679914735E-016));
#265=CARTESIAN_POINT('',(0.0,0.0,0.0));
#266=DIRECTION('',(6.12323399573677E-017,1.22464679914735E-016,-1.0));
#267=DIRECTION('',(-1.23259516440783E-032,1.0,1.22464679914735E-016));
#268=CARTESIAN_POINT('',(9.18485099360515E-017,1.83697019872103E-016,-1.5));
#269=DIRECTION('',(6.12323399573677E-017,1.22464679914735E-016,-1.0));
#270=DIRECTION('',(-1.23259516440783E-032,1.0,1.22464679914735E-016));
#271=SURFACE_STYLE_FILL_AREA(#300);
#272=ORIENTED_EDGE('',*,*,#62,.F.);
#273=ORIENTED_EDGE('',*,*,#55,.T.);
#274=CARTESIAN_POINT('',(4.59242549680257E-017,9.18485099360515E-017,-0.75));
#275=DIRECTION('',(6.12323399573677E-017,1.22464679914735E-016,-1.0));
#276=DIRECTION('',(-1.23259516440783E-032,1.0,1.22464679914735E-016));
#277=SURFACE_STYLE_FILL_AREA(#301);
#278=ORIENTED_EDGE('',*,*,#70,.F.);
#279=ORIENTED_EDGE('',*,*,#51,.T.);
#280=CARTESIAN_POINT('',(-9.79717439317883E-016,-1.95943487863576E-015,16.0));
#281=DIRECTION('',(6.12323399573677E-017,1.22464679914735E-016,-1.0));
#282=DIRECTION('',(-1.23259516440783E-032,1.0,1.22464679914735E-016));
#283=CARTESIAN_POINT('',(-9.18485099360515E-017,-1.83697019872103E-016,1.5));
#284=DIRECTION('',(6.12323399573677E-017,1.22464679914735E-016,-1.0));
#285=DIRECTION('',(-1.23259516440783E-032,1.0,1.22464679914735E-016));
#286=CARTESIAN_POINT('',(9.18485099360515E-017,1.83697019872103E-016,-1.5));
#287=DIRECTION('',(6.12323399573677E-017,1.22464679914735E-016,-1.0));
#288=DIRECTION('',(-1.23259516440783E-032,1.0,1.22464679914735E-016));
#289=SURFACE_STYLE_FILL_AREA(#302);
#290=ORIENTED_EDGE('',*,*,#60,.F.);
#291=ORIENTED_EDGE('',*,*,#70,.T.);
#292=CARTESIAN_POINT('',(-4.59242549680257E-017,-9.18485099360515E-017,0.75));
#293=DIRECTION('',(6.12323399573677E-017,1.22464679914735E-016,-1.0));
#294=DIRECTION('',(-1.0,-4.82715273076902E-033,-6.12323399573677E-017));
#295=FILL_AREA_STYLE('',(#303));
#296=FILL_AREA_STYLE('',(#304));
#297=FILL_AREA_STYLE('',(#305));
#298=FILL_AREA_STYLE('',(#306));
#299=FILL_AREA_STYLE('',(#307));
#300=FILL_AREA_STYLE('',(#308));
#301=FILL_AREA_STYLE('',(#309));
#302=FILL_AREA_STYLE('',(#310));
#303=FILL_AREA_STYLE_COLOUR('',#311);
#304=FILL_AREA_STYLE_COLOUR('',#312);
#305=FILL_AREA_STYLE_COLOUR('',#313);
#306=FILL_AREA_STYLE_COLOUR('',#314);
#307=FILL_AREA_STYLE_COLOUR('',#315);
#308=FILL_AREA_STYLE_COLOUR('',#316);
#309=FILL_AREA_STYLE_COLOUR('',#317);
#310=FILL_AREA_STYLE_COLOUR('',#318);
#311=COLOUR_RGB('',0.501960813999176,0.501960813999176,0.501960813999176);
#312=COLOUR_RGB('',0.501960813999176,0.501960813999176,0.501960813999176);
#313=COLOUR_RGB('',0.501960813999176,0.501960813999176,0.501960813999176);
#314=COLOUR_RGB('',0.501960813999176,0.501960813999176,0.501960813999176);
#315=COLOUR_RGB('',0.501960813999176,0.501960813999176,0.501960813999176);
#316=COLOUR_RGB('',0.501960813999176,0.501960813999176,0.501960813999176);
#317=COLOUR_RGB('',0.501960813999176,0.501960813999176,0.501960813999176);
#318=COLOUR_RGB('',0.501960813999176,0.501960813999176,0.501960813999176);
ENDSEC;
END-ISO-10303-21;
