ISO-10303-21;
HEADER;
FILE_DESCRIPTION((''),'1');
FILE_NAME('T:/00_BIG-HP\X2\FF71FF6FFF8CFF9F\X0\/\X2\670065B0\X0\2025_HP\X2\FF71FF6FFF8CFF9F4E885B9AFF83FF9EFF70FF80\X0\/01_DXF\X2\FF83FF9EFF70FF80\X0\/LINK\X2\7528FF83FF9EFF70FF80\X0\/CK\X2\FF8DFF6FFF84FF9E30FBFF71FF78FF7EFF7BFF98\X0\/10_\X2\4ED54E0A305275284E38FF8AFF9EFF72FF84FF7CFF98FF70FF7DFF9E\X0\/09_\X2\4E38FF8AFF9EFF72FF847528FF7DFF84FF9AFF70FF84FF7AFF9AFF6FFF84\X0\/EC1206.stp','2024-09-10T01:09:29',(''),(''),'Spatial Interop R21 SP3','Kubotek KeyCreator 2011 V10.0.2 (22737)',' ');
FILE_SCHEMA(('automotive_design'));
ENDSEC;
DATA;
#1=MECHANICAL_DESIGN_GEOMETRIC_PRESENTATION_REPRESENTATION(' ',(#10,#11,#12,#13,#14,#15,#16,#17,#18,#19,#20,#21,#22,#23,#24),#6);
#2=PRODUCT_DEFINITION_CONTEXT('',#25,'design');
#3=APPLICATION_PROTOCOL_DEFINITION('INTERNATIONAL STANDARD','automotive_design',1994,#25);
#4=PRODUCT_CATEGORY_RELATIONSHIP('NONE','NONE',#26,#27);
#5=SHAPE_DEFINITION_REPRESENTATION(#28,#29);
#6= (GEOMETRIC_REPRESENTATION_CONTEXT(3)GLOBAL_UNCERTAINTY_ASSIGNED_CONTEXT((#32))GLOBAL_UNIT_ASSIGNED_CONTEXT((#34,#35,#36))REPRESENTATION_CONTEXT('NONE','WORKSPACE'));
#10=STYLED_ITEM('',(#38,#39),#40);
#11=STYLED_ITEM('',(#41),#42);
#12=STYLED_ITEM('',(#43),#44);
#13=STYLED_ITEM('',(#45),#46);
#14=STYLED_ITEM('',(#47),#48);
#15=STYLED_ITEM('',(#49,#50),#51);
#16=STYLED_ITEM('',(#52,#53),#54);
#17=STYLED_ITEM('',(#55,#56),#57);
#18=STYLED_ITEM('',(#58,#59),#60);
#19=STYLED_ITEM('',(#61),#62);
#20=STYLED_ITEM('',(#63,#64),#65);
#21=STYLED_ITEM('',(#66,#67),#68);
#22=STYLED_ITEM('',(#69),#70);
#23=STYLED_ITEM('',(#71),#72);
#24=STYLED_ITEM('',(#73,#74),#75);
#25=APPLICATION_CONTEXT(' ');
#26=PRODUCT_CATEGORY('part','NONE');
#27=PRODUCT_RELATED_PRODUCT_CATEGORY('detail',' ',(#76));
#28=PRODUCT_DEFINITION_SHAPE('NONE','NONE',#77);
#29=ADVANCED_BREP_SHAPE_REPRESENTATION('240[2]',(#75,#78),#6);
#32=UNCERTAINTY_MEASURE_WITH_UNIT(LENGTH_MEASURE(1.0E-006),#34,'','');
#34= (CONVERSION_BASED_UNIT('MILLIMETRE',#81)LENGTH_UNIT()NAMED_UNIT(#84));
#35= (NAMED_UNIT(#86)PLANE_ANGLE_UNIT()SI_UNIT($,.RADIAN.));
#36= (NAMED_UNIT(#86)SOLID_ANGLE_UNIT()SI_UNIT($,.STERADIAN.));
#38=PRESENTATION_STYLE_ASSIGNMENT((#92));
#39=PRESENTATION_STYLE_ASSIGNMENT((#93));
#40=ADVANCED_FACE('240[2]',(#94,#95),#96,.T.);
#41=PRESENTATION_STYLE_ASSIGNMENT((#97));
#42=EDGE_CURVE('240[2]',#98,#98,#99,.T.);
#43=PRESENTATION_STYLE_ASSIGNMENT((#100));
#44=EDGE_CURVE('240[2]',#101,#101,#102,.T.);
#45=PRESENTATION_STYLE_ASSIGNMENT((#103));
#46=EDGE_CURVE('240[2]',#104,#104,#105,.T.);
#47=PRESENTATION_STYLE_ASSIGNMENT((#106));
#48=EDGE_CURVE('240[2]',#107,#107,#108,.T.);
#49=PRESENTATION_STYLE_ASSIGNMENT((#109));
#50=PRESENTATION_STYLE_ASSIGNMENT((#110));
#51=ADVANCED_FACE('240[2]',(#111,#112),#113,.T.);
#52=PRESENTATION_STYLE_ASSIGNMENT((#114));
#53=PRESENTATION_STYLE_ASSIGNMENT((#115));
#54=ADVANCED_FACE('240[2]',(#116,#117),#118,.T.);
#55=PRESENTATION_STYLE_ASSIGNMENT((#119));
#56=PRESENTATION_STYLE_ASSIGNMENT((#120));
#57=ADVANCED_FACE('240[2]',(#121,#122),#123,.T.);
#58=PRESENTATION_STYLE_ASSIGNMENT((#124));
#59=PRESENTATION_STYLE_ASSIGNMENT((#125));
#60=ADVANCED_FACE('240[2]',(#126,#127),#128,.T.);
#61=PRESENTATION_STYLE_ASSIGNMENT((#129));
#62=EDGE_CURVE('240[2]',#130,#130,#131,.T.);
#63=PRESENTATION_STYLE_ASSIGNMENT((#132));
#64=PRESENTATION_STYLE_ASSIGNMENT((#133));
#65=ADVANCED_FACE('240[2]',(#134,#135),#136,.F.);
#66=PRESENTATION_STYLE_ASSIGNMENT((#137));
#67=PRESENTATION_STYLE_ASSIGNMENT((#138));
#68=ADVANCED_FACE('240[2]',(#139,#140),#141,.T.);
#69=PRESENTATION_STYLE_ASSIGNMENT((#142));
#70=EDGE_CURVE('240[2]',#143,#143,#144,.T.);
#71=PRESENTATION_STYLE_ASSIGNMENT((#145));
#72=EDGE_CURVE('240[2]',#146,#146,#147,.T.);
#73=PRESENTATION_STYLE_ASSIGNMENT((#148));
#74=PRESENTATION_STYLE_ASSIGNMENT((#149));
#75=MANIFOLD_SOLID_BREP('240[2]',#150);
#76=PRODUCT('240[2]','240[2]','PART-240[2]-DESC',(#151));
#77=PRODUCT_DEFINITION('NONE','NONE',#152,#2);
#78=AXIS2_PLACEMENT_3D('',#153,#154,#155);
#81=LENGTH_MEASURE_WITH_UNIT(LENGTH_MEASURE(1.0),#156);
#84=DIMENSIONAL_EXPONENTS(1.0,0.0,0.0,0.0,0.0,0.0,0.0);
#86=DIMENSIONAL_EXPONENTS(0.0,0.0,0.0,0.0,0.0,0.0,0.0);
#92=SURFACE_STYLE_USAGE(.BOTH.,#157);
#93=CURVE_STYLE('',#158,POSITIVE_LENGTH_MEASURE(1000.0),#159);
#94=FACE_BOUND('',#160,.T.);
#95=FACE_BOUND('',#161,.T.);
#96=CYLINDRICAL_SURFACE('',#162,6.5);
#97=CURVE_STYLE('',#163,POSITIVE_LENGTH_MEASURE(1000.0),#164);
#98=VERTEX_POINT('',#165);
#99=CIRCLE('',#166,3.0);
#100=CURVE_STYLE('',#167,POSITIVE_LENGTH_MEASURE(1000.0),#168);
#101=VERTEX_POINT('',#169);
#102=CIRCLE('',#170,6.5);
#103=CURVE_STYLE('',#171,POSITIVE_LENGTH_MEASURE(1000.0),#172);
#104=VERTEX_POINT('',#173);
#105=CIRCLE('',#174,6.0);
#106=CURVE_STYLE('',#175,POSITIVE_LENGTH_MEASURE(1000.0),#176);
#107=VERTEX_POINT('',#177);
#108=CIRCLE('',#178,3.0);
#109=SURFACE_STYLE_USAGE(.BOTH.,#179);
#110=CURVE_STYLE('',#180,POSITIVE_LENGTH_MEASURE(1000.0),#181);
#111=FACE_BOUND('',#182,.T.);
#112=FACE_BOUND('',#183,.T.);
#113=TOROIDAL_SURFACE('',#184,5.6875,0.8125);
#114=SURFACE_STYLE_USAGE(.BOTH.,#185);
#115=CURVE_STYLE('',#186,POSITIVE_LENGTH_MEASURE(1000.0),#187);
#116=FACE_OUTER_BOUND('',#188,.T.);
#117=FACE_BOUND('',#189,.T.);
#118=PLANE('',#190);
#119=SURFACE_STYLE_USAGE(.BOTH.,#191);
#120=CURVE_STYLE('',#192,POSITIVE_LENGTH_MEASURE(1000.0),#193);
#121=FACE_BOUND('',#194,.T.);
#122=FACE_OUTER_BOUND('',#195,.T.);
#123=PLANE('',#196);
#124=SURFACE_STYLE_USAGE(.BOTH.,#197);
#125=CURVE_STYLE('',#198,POSITIVE_LENGTH_MEASURE(1000.0),#199);
#126=FACE_OUTER_BOUND('',#200,.T.);
#127=FACE_BOUND('',#201,.T.);
#128=PLANE('',#202);
#129=CURVE_STYLE('',#203,POSITIVE_LENGTH_MEASURE(1000.0),#204);
#130=VERTEX_POINT('',#205);
#131=CIRCLE('',#206,6.0);
#132=SURFACE_STYLE_USAGE(.BOTH.,#207);
#133=CURVE_STYLE('',#208,POSITIVE_LENGTH_MEASURE(1000.0),#209);
#134=FACE_BOUND('',#210,.T.);
#135=FACE_BOUND('',#211,.T.);
#136=CYLINDRICAL_SURFACE('',#212,3.0);
#137=SURFACE_STYLE_USAGE(.BOTH.,#213);
#138=CURVE_STYLE('',#214,POSITIVE_LENGTH_MEASURE(1000.0),#215);
#139=FACE_BOUND('',#216,.T.);
#140=FACE_BOUND('',#217,.T.);
#141=CYLINDRICAL_SURFACE('',#218,6.0);
#142=CURVE_STYLE('',#219,POSITIVE_LENGTH_MEASURE(1000.0),#220);
#143=VERTEX_POINT('',#221);
#144=CIRCLE('',#222,6.0);
#145=CURVE_STYLE('',#223,POSITIVE_LENGTH_MEASURE(1000.0),#224);
#146=VERTEX_POINT('',#225);
#147=CIRCLE('',#226,6.5);
#148=SURFACE_STYLE_USAGE(.BOTH.,#227);
#149=CURVE_STYLE('',#228,POSITIVE_LENGTH_MEASURE(1000.0),#229);
#150=CLOSED_SHELL('',(#60,#68,#51,#54,#40,#57,#65));
#151=PRODUCT_CONTEXT('',#25,'mechanical');
#152=PRODUCT_DEFINITION_FORMATION_WITH_SPECIFIED_SOURCE(' ','NONE',#76,.NOT_KNOWN.);
#153=CARTESIAN_POINT('',(0.0,0.0,0.0));
#154=DIRECTION('',(0.0,0.0,1.0));
#155=DIRECTION('',(1.0,0.0,0.0));
#156= (NAMED_UNIT(#84)LENGTH_UNIT()SI_UNIT(.MILLI.,.METRE.));
#157=SURFACE_SIDE_STYLE('',(#231));
#158=DRAUGHTING_PRE_DEFINED_CURVE_FONT('continuous');
#159=COLOUR_RGB('',0.501960813999176,0.501960813999176,0.501960813999176);
#160=EDGE_LOOP('',(#232));
#161=EDGE_LOOP('',(#233));
#162=AXIS2_PLACEMENT_3D('',#234,#235,#236);
#163=DRAUGHTING_PRE_DEFINED_CURVE_FONT('continuous');
#164=COLOUR_RGB('',0.501960813999176,0.501960813999176,0.501960813999176);
#165=CARTESIAN_POINT('',(9.18485099360514E-017,3.0,-1.5));
#166=AXIS2_PLACEMENT_3D('',#237,#238,#239);
#167=DRAUGHTING_PRE_DEFINED_CURVE_FONT('continuous');
#168=COLOUR_RGB('',0.501960813999176,0.501960813999176,0.501960813999176);
#169=CARTESIAN_POINT('',(-8.0118685686509E-032,6.5,7.96020419445779E-016));
#170=AXIS2_PLACEMENT_3D('',#240,#241,#242);
#171=DRAUGHTING_PRE_DEFINED_CURVE_FONT('continuous');
#172=COLOUR_RGB('',0.501960813999176,0.501960813999176,0.501960813999176);
#173=CARTESIAN_POINT('',(-1.86758636869971E-015,6.0,30.5));
#174=AXIS2_PLACEMENT_3D('',#243,#244,#245);
#175=DRAUGHTING_PRE_DEFINED_CURVE_FONT('continuous');
#176=COLOUR_RGB('',0.501960813999176,0.501960813999176,0.501960813999176);
#177=CARTESIAN_POINT('',(-1.86758636869971E-015,3.0,30.5));
#178=AXIS2_PLACEMENT_3D('',#246,#247,#248);
#179=SURFACE_SIDE_STYLE('',(#249));
#180=DRAUGHTING_PRE_DEFINED_CURVE_FONT('continuous');
#181=COLOUR_RGB('',0.501960813999176,0.501960813999176,0.501960813999176);
#182=EDGE_LOOP('',(#250));
#183=EDGE_LOOP('',(#251));
#184=AXIS2_PLACEMENT_3D('',#252,#253,#254);
#185=SURFACE_SIDE_STYLE('',(#255));
#186=DRAUGHTING_PRE_DEFINED_CURVE_FONT('continuous');
#187=COLOUR_RGB('',0.501960813999176,0.501960813999176,0.501960813999176);
#188=EDGE_LOOP('',(#256));
#189=EDGE_LOOP('',(#257));
#190=AXIS2_PLACEMENT_3D('',#258,#259,#260);
#191=SURFACE_SIDE_STYLE('',(#261));
#192=DRAUGHTING_PRE_DEFINED_CURVE_FONT('continuous');
#193=COLOUR_RGB('',0.501960813999176,0.501960813999176,0.501960813999176);
#194=EDGE_LOOP('',(#262));
#195=EDGE_LOOP('',(#263));
#196=AXIS2_PLACEMENT_3D('',#264,#265,#266);
#197=SURFACE_SIDE_STYLE('',(#267));
#198=DRAUGHTING_PRE_DEFINED_CURVE_FONT('continuous');
#199=COLOUR_RGB('',0.501960813999176,0.501960813999176,0.501960813999176);
#200=EDGE_LOOP('',(#268));
#201=EDGE_LOOP('',(#269));
#202=AXIS2_PLACEMENT_3D('',#270,#271,#272);
#203=DRAUGHTING_PRE_DEFINED_CURVE_FONT('continuous');
#204=COLOUR_RGB('',0.501960813999176,0.501960813999176,0.501960813999176);
#205=CARTESIAN_POINT('',(-9.18485099360516E-017,6.0,1.5));
#206=AXIS2_PLACEMENT_3D('',#273,#274,#275);
#207=SURFACE_SIDE_STYLE('',(#276));
#208=DRAUGHTING_PRE_DEFINED_CURVE_FONT('continuous');
#209=COLOUR_RGB('',0.501960813999176,0.501960813999176,0.501960813999176);
#210=EDGE_LOOP('',(#277));
#211=EDGE_LOOP('',(#278));
#212=AXIS2_PLACEMENT_3D('',#279,#280,#281);
#213=SURFACE_SIDE_STYLE('',(#282));
#214=DRAUGHTING_PRE_DEFINED_CURVE_FONT('continuous');
#215=COLOUR_RGB('',0.501960813999176,0.501960813999176,0.501960813999176);
#216=EDGE_LOOP('',(#283));
#217=EDGE_LOOP('',(#284));
#218=AXIS2_PLACEMENT_3D('',#285,#286,#287);
#219=DRAUGHTING_PRE_DEFINED_CURVE_FONT('continuous');
#220=COLOUR_RGB('',0.501960813999176,0.501960813999176,0.501960813999176);
#221=CARTESIAN_POINT('',(-7.39557098644699E-032,6.0,7.34788079488412E-016));
#222=AXIS2_PLACEMENT_3D('',#288,#289,#290);
#223=DRAUGHTING_PRE_DEFINED_CURVE_FONT('continuous');
#224=COLOUR_RGB('',0.501960813999176,0.501960813999176,0.501960813999176);
#225=CARTESIAN_POINT('',(9.18485099360514E-017,6.5,-1.5));
#226=AXIS2_PLACEMENT_3D('',#291,#292,#293);
#227=SURFACE_SIDE_STYLE('',(#294));
#228=DRAUGHTING_PRE_DEFINED_CURVE_FONT('continuous');
#229=COLOUR_RGB('',0.501960813999176,0.501960813999176,0.501960813999176);
#231=SURFACE_STYLE_FILL_AREA(#295);
#232=ORIENTED_EDGE('',*,*,#72,.F.);
#233=ORIENTED_EDGE('',*,*,#44,.T.);
#234=CARTESIAN_POINT('',(4.59242549680257E-017,9.18485099360515E-017,-0.75));
#235=DIRECTION('',(6.12323399573677E-017,1.22464679914735E-016,-1.0));
#236=DIRECTION('',(-1.23259516440783E-032,1.0,1.22464679914735E-016));
#237=CARTESIAN_POINT('',(9.18485099360515E-017,1.83697019872103E-016,-1.5));
#238=DIRECTION('',(6.12323399573676E-017,1.22464679914735E-016,-1.0));
#239=DIRECTION('',(-1.23259516440783E-032,1.0,1.22464679914735E-016));
#240=CARTESIAN_POINT('',(0.0,0.0,0.0));
#241=DIRECTION('',(6.12323399573677E-017,1.22464679914735E-016,-1.0));
#242=DIRECTION('',(-1.23259516440783E-032,1.0,1.22464679914735E-016));
#243=CARTESIAN_POINT('',(-1.86758636869971E-015,-3.73517273739943E-015,30.5));
#244=DIRECTION('',(6.12323399573677E-017,1.22464679914735E-016,-1.0));
#245=DIRECTION('',(-1.23259516440783E-032,1.0,1.22464679914735E-016));
#246=CARTESIAN_POINT('',(-1.86758636869971E-015,-3.73517273739943E-015,30.5));
#247=DIRECTION('',(6.12323399573677E-017,1.22464679914735E-016,-1.0));
#248=DIRECTION('',(-1.23259516440783E-032,1.0,1.22464679914735E-016));
#249=SURFACE_STYLE_FILL_AREA(#296);
#250=ORIENTED_EDGE('',*,*,#70,.F.);
#251=ORIENTED_EDGE('',*,*,#62,.T.);
#252=CARTESIAN_POINT('',(-4.59242549680257E-017,-9.18485099360515E-017,0.75));
#253=DIRECTION('',(6.12323399573677E-017,1.22464679914735E-016,-1.0));
#254=DIRECTION('',(-1.0,-4.82715273076902E-033,-6.12323399573677E-017));
#255=SURFACE_STYLE_FILL_AREA(#297);
#256=ORIENTED_EDGE('',*,*,#44,.F.);
#257=ORIENTED_EDGE('',*,*,#70,.T.);
#258=CARTESIAN_POINT('',(-7.70371977754894E-032,6.25,7.65404249467096E-016));
#259=DIRECTION('',(-6.12323399573677E-017,-1.22464679914735E-016,1.0));
#260=DIRECTION('',(1.23259516440783E-032,-1.0,-1.22464679914735E-016));
#261=SURFACE_STYLE_FILL_AREA(#298);
#262=ORIENTED_EDGE('',*,*,#42,.F.);
#263=ORIENTED_EDGE('',*,*,#72,.T.);
#264=CARTESIAN_POINT('',(9.18485099360514E-017,4.75,-1.5));
#265=DIRECTION('',(6.12323399573677E-017,1.22464679914735E-016,-1.0));
#266=DIRECTION('',(-1.23259516440783E-032,1.0,1.22464679914735E-016));
#267=SURFACE_STYLE_FILL_AREA(#299);
#268=ORIENTED_EDGE('',*,*,#46,.F.);
#269=ORIENTED_EDGE('',*,*,#48,.T.);
#270=CARTESIAN_POINT('',(-1.86758636869971E-015,4.5,30.5));
#271=DIRECTION('',(-6.12323399573677E-017,-1.22464679914735E-016,1.0));
#272=DIRECTION('',(1.23259516440783E-032,-1.0,-1.22464679914735E-016));
#273=CARTESIAN_POINT('',(-9.18485099360515E-017,-1.83697019872103E-016,1.5));
#274=DIRECTION('',(6.12323399573677E-017,1.22464679914735E-016,-1.0));
#275=DIRECTION('',(-1.23259516440783E-032,1.0,1.22464679914735E-016));
#276=SURFACE_STYLE_FILL_AREA(#300);
#277=ORIENTED_EDGE('',*,*,#48,.F.);
#278=ORIENTED_EDGE('',*,*,#42,.T.);
#279=CARTESIAN_POINT('',(-8.87868929381831E-016,-1.77573785876366E-015,14.5));
#280=DIRECTION('',(6.12323399573677E-017,1.22464679914735E-016,-1.0));
#281=DIRECTION('',(-1.23259516440783E-032,1.0,1.22464679914735E-016));
#282=SURFACE_STYLE_FILL_AREA(#301);
#283=ORIENTED_EDGE('',*,*,#62,.F.);
#284=ORIENTED_EDGE('',*,*,#46,.T.);
#285=CARTESIAN_POINT('',(-9.79717439317883E-016,-1.95943487863576E-015,16.0));
#286=DIRECTION('',(6.12323399573677E-017,1.22464679914735E-016,-1.0));
#287=DIRECTION('',(-1.23259516440783E-032,1.0,1.22464679914735E-016));
#288=CARTESIAN_POINT('',(0.0,0.0,0.0));
#289=DIRECTION('',(6.12323399573677E-017,1.22464679914735E-016,-1.0));
#290=DIRECTION('',(-1.23259516440783E-032,1.0,1.22464679914735E-016));
#291=CARTESIAN_POINT('',(9.18485099360515E-017,1.83697019872103E-016,-1.5));
#292=DIRECTION('',(6.12323399573677E-017,1.22464679914735E-016,-1.0));
#293=DIRECTION('',(-1.23259516440783E-032,1.0,1.22464679914735E-016));
#294=SURFACE_STYLE_FILL_AREA(#302);
#295=FILL_AREA_STYLE('',(#303));
#296=FILL_AREA_STYLE('',(#304));
#297=FILL_AREA_STYLE('',(#305));
#298=FILL_AREA_STYLE('',(#306));
#299=FILL_AREA_STYLE('',(#307));
#300=FILL_AREA_STYLE('',(#308));
#301=FILL_AREA_STYLE('',(#309));
#302=FILL_AREA_STYLE('',(#310));
#303=FILL_AREA_STYLE_COLOUR('',#311);
#304=FILL_AREA_STYLE_COLOUR('',#312);
#305=FILL_AREA_STYLE_COLOUR('',#313);
#306=FILL_AREA_STYLE_COLOUR('',#314);
#307=FILL_AREA_STYLE_COLOUR('',#315);
#308=FILL_AREA_STYLE_COLOUR('',#316);
#309=FILL_AREA_STYLE_COLOUR('',#317);
#310=FILL_AREA_STYLE_COLOUR('',#318);
#311=COLOUR_RGB('',0.501960813999176,0.501960813999176,0.501960813999176);
#312=COLOUR_RGB('',0.501960813999176,0.501960813999176,0.501960813999176);
#313=COLOUR_RGB('',0.501960813999176,0.501960813999176,0.501960813999176);
#314=COLOUR_RGB('',0.501960813999176,0.501960813999176,0.501960813999176);
#315=COLOUR_RGB('',0.501960813999176,0.501960813999176,0.501960813999176);
#316=COLOUR_RGB('',0.501960813999176,0.501960813999176,0.501960813999176);
#317=COLOUR_RGB('',0.501960813999176,0.501960813999176,0.501960813999176);
#318=COLOUR_RGB('',0.501960813999176,0.501960813999176,0.501960813999176);
ENDSEC;
END-ISO-10303-21;
