ISO-10303-21;
HEADER;
FILE_DESCRIPTION((''),'1');
FILE_NAME('T:/00_BIG-HP\X2\FF71FF6FFF8CFF9F\X0\/\X2\670065B0\X0\2025_HP\X2\FF71FF6FFF8CFF9F4E885B9AFF83FF9EFF70FF80\X0\/01_DXF\X2\FF83FF9EFF70FF80\X0\/LINK\X2\7528FF83FF9EFF70FF80\X0\/CK\X2\FF8DFF6FFF84FF9E30FBFF71FF78FF7EFF7BFF98\X0\/10_\X2\4ED54E0A305275284E38FF8AFF9EFF72FF84FF7CFF98FF70FF7DFF9E\X0\/09_\X2\4E38FF8AFF9EFF72FF847528FF7DFF84FF9AFF70FF84FF7AFF9AFF6FFF84\X0\/EC1205.stp','2024-09-10T01:00:53',(''),(''),'Spatial Interop R21 SP3','Kubotek KeyCreator 2011 V10.0.2 (22737)',' ');
FILE_SCHEMA(('automotive_design'));
ENDSEC;
DATA;
#1=MECHANICAL_DESIGN_GEOMETRIC_PRESENTATION_REPRESENTATION(' ',(#10,#11,#12,#13,#14,#15,#16,#17,#18,#19,#20,#21,#22,#23,#24),#6);
#2=PRODUCT_DEFINITION_CONTEXT('',#25,'design');
#3=APPLICATION_PROTOCOL_DEFINITION('INTERNATIONAL STANDARD','automotive_design',1994,#25);
#4=PRODUCT_CATEGORY_RELATIONSHIP('NONE','NONE',#26,#27);
#5=SHAPE_DEFINITION_REPRESENTATION(#28,#29);
#6= (GEOMETRIC_REPRESENTATION_CONTEXT(3)GLOBAL_UNCERTAINTY_ASSIGNED_CONTEXT((#32))GLOBAL_UNIT_ASSIGNED_CONTEXT((#34,#35,#36))REPRESENTATION_CONTEXT('NONE','WORKSPACE'));
#10=STYLED_ITEM('',(#38,#39),#40);
#11=STYLED_ITEM('',(#41,#42),#43);
#12=STYLED_ITEM('',(#44,#45),#46);
#13=STYLED_ITEM('',(#47),#48);
#14=STYLED_ITEM('',(#49),#50);
#15=STYLED_ITEM('',(#51,#52),#53);
#16=STYLED_ITEM('',(#54,#55),#56);
#17=STYLED_ITEM('',(#57),#58);
#18=STYLED_ITEM('',(#59),#60);
#19=STYLED_ITEM('',(#61),#62);
#20=STYLED_ITEM('',(#63,#64),#65);
#21=STYLED_ITEM('',(#66,#67),#68);
#22=STYLED_ITEM('',(#69,#70),#71);
#23=STYLED_ITEM('',(#72),#73);
#24=STYLED_ITEM('',(#74),#75);
#25=APPLICATION_CONTEXT(' ');
#26=PRODUCT_CATEGORY('part','NONE');
#27=PRODUCT_RELATED_PRODUCT_CATEGORY('detail',' ',(#76));
#28=PRODUCT_DEFINITION_SHAPE('NONE','NONE',#77);
#29=ADVANCED_BREP_SHAPE_REPRESENTATION('240[2]',(#40,#78),#6);
#32=UNCERTAINTY_MEASURE_WITH_UNIT(LENGTH_MEASURE(1.0E-006),#34,'','');
#34= (CONVERSION_BASED_UNIT('MILLIMETRE',#81)LENGTH_UNIT()NAMED_UNIT(#84));
#35= (NAMED_UNIT(#86)PLANE_ANGLE_UNIT()SI_UNIT($,.RADIAN.));
#36= (NAMED_UNIT(#86)SOLID_ANGLE_UNIT()SI_UNIT($,.STERADIAN.));
#38=PRESENTATION_STYLE_ASSIGNMENT((#92));
#39=PRESENTATION_STYLE_ASSIGNMENT((#93));
#40=MANIFOLD_SOLID_BREP('240[2]',#94);
#41=PRESENTATION_STYLE_ASSIGNMENT((#95));
#42=PRESENTATION_STYLE_ASSIGNMENT((#96));
#43=ADVANCED_FACE('240[2]',(#97,#98),#99,.T.);
#44=PRESENTATION_STYLE_ASSIGNMENT((#100));
#45=PRESENTATION_STYLE_ASSIGNMENT((#101));
#46=ADVANCED_FACE('240[2]',(#102,#103),#104,.T.);
#47=PRESENTATION_STYLE_ASSIGNMENT((#105));
#48=EDGE_CURVE('240[2]',#106,#106,#107,.T.);
#49=PRESENTATION_STYLE_ASSIGNMENT((#108));
#50=EDGE_CURVE('240[2]',#109,#109,#110,.T.);
#51=PRESENTATION_STYLE_ASSIGNMENT((#111));
#52=PRESENTATION_STYLE_ASSIGNMENT((#112));
#53=ADVANCED_FACE('240[2]',(#113,#114),#115,.T.);
#54=PRESENTATION_STYLE_ASSIGNMENT((#116));
#55=PRESENTATION_STYLE_ASSIGNMENT((#117));
#56=ADVANCED_FACE('240[2]',(#118,#119),#120,.T.);
#57=PRESENTATION_STYLE_ASSIGNMENT((#121));
#58=EDGE_CURVE('240[2]',#122,#122,#123,.T.);
#59=PRESENTATION_STYLE_ASSIGNMENT((#124));
#60=EDGE_CURVE('240[2]',#125,#125,#126,.T.);
#61=PRESENTATION_STYLE_ASSIGNMENT((#127));
#62=EDGE_CURVE('240[2]',#128,#128,#129,.T.);
#63=PRESENTATION_STYLE_ASSIGNMENT((#130));
#64=PRESENTATION_STYLE_ASSIGNMENT((#131));
#65=ADVANCED_FACE('240[2]',(#132,#133),#134,.T.);
#66=PRESENTATION_STYLE_ASSIGNMENT((#135));
#67=PRESENTATION_STYLE_ASSIGNMENT((#136));
#68=ADVANCED_FACE('240[2]',(#137,#138),#139,.F.);
#69=PRESENTATION_STYLE_ASSIGNMENT((#140));
#70=PRESENTATION_STYLE_ASSIGNMENT((#141));
#71=ADVANCED_FACE('240[2]',(#142,#143),#144,.T.);
#72=PRESENTATION_STYLE_ASSIGNMENT((#145));
#73=EDGE_CURVE('240[2]',#146,#146,#147,.T.);
#74=PRESENTATION_STYLE_ASSIGNMENT((#148));
#75=EDGE_CURVE('240[2]',#149,#149,#150,.T.);
#76=PRODUCT('240[2]','240[2]','PART-240[2]-DESC',(#151));
#77=PRODUCT_DEFINITION('NONE','NONE',#152,#2);
#78=AXIS2_PLACEMENT_3D('',#153,#154,#155);
#81=LENGTH_MEASURE_WITH_UNIT(LENGTH_MEASURE(1.0),#156);
#84=DIMENSIONAL_EXPONENTS(1.0,0.0,0.0,0.0,0.0,0.0,0.0);
#86=DIMENSIONAL_EXPONENTS(0.0,0.0,0.0,0.0,0.0,0.0,0.0);
#92=SURFACE_STYLE_USAGE(.BOTH.,#157);
#93=CURVE_STYLE('',#158,POSITIVE_LENGTH_MEASURE(1000.0),#159);
#94=CLOSED_SHELL('',(#43,#46,#65,#71,#53,#56,#68));
#95=SURFACE_STYLE_USAGE(.BOTH.,#160);
#96=CURVE_STYLE('',#161,POSITIVE_LENGTH_MEASURE(1000.0),#162);
#97=FACE_OUTER_BOUND('',#163,.T.);
#98=FACE_BOUND('',#164,.T.);
#99=PLANE('',#165);
#100=SURFACE_STYLE_USAGE(.BOTH.,#166);
#101=CURVE_STYLE('',#167,POSITIVE_LENGTH_MEASURE(1000.0),#168);
#102=FACE_BOUND('',#169,.T.);
#103=FACE_BOUND('',#170,.T.);
#104=CYLINDRICAL_SURFACE('',#171,6.0);
#105=CURVE_STYLE('',#172,POSITIVE_LENGTH_MEASURE(1000.0),#173);
#106=VERTEX_POINT('',#174);
#107=CIRCLE('',#175,6.0);
#108=CURVE_STYLE('',#176,POSITIVE_LENGTH_MEASURE(1000.0),#177);
#109=VERTEX_POINT('',#178);
#110=CIRCLE('',#179,6.5);
#111=SURFACE_STYLE_USAGE(.BOTH.,#180);
#112=CURVE_STYLE('',#181,POSITIVE_LENGTH_MEASURE(1000.0),#182);
#113=FACE_BOUND('',#183,.T.);
#114=FACE_BOUND('',#184,.T.);
#115=CYLINDRICAL_SURFACE('',#185,6.5);
#116=SURFACE_STYLE_USAGE(.BOTH.,#186);
#117=CURVE_STYLE('',#187,POSITIVE_LENGTH_MEASURE(1000.0),#188);
#118=FACE_BOUND('',#189,.T.);
#119=FACE_OUTER_BOUND('',#190,.T.);
#120=PLANE('',#191);
#121=CURVE_STYLE('',#192,POSITIVE_LENGTH_MEASURE(1000.0),#193);
#122=VERTEX_POINT('',#194);
#123=CIRCLE('',#195,6.0);
#124=CURVE_STYLE('',#196,POSITIVE_LENGTH_MEASURE(1000.0),#197);
#125=VERTEX_POINT('',#198);
#126=CIRCLE('',#199,2.5);
#127=CURVE_STYLE('',#200,POSITIVE_LENGTH_MEASURE(1000.0),#201);
#128=VERTEX_POINT('',#202);
#129=CIRCLE('',#203,6.0);
#130=SURFACE_STYLE_USAGE(.BOTH.,#204);
#131=CURVE_STYLE('',#205,POSITIVE_LENGTH_MEASURE(1000.0),#206);
#132=FACE_BOUND('',#207,.T.);
#133=FACE_BOUND('',#208,.T.);
#134=TOROIDAL_SURFACE('',#209,5.6875,0.8125);
#135=SURFACE_STYLE_USAGE(.BOTH.,#210);
#136=CURVE_STYLE('',#211,POSITIVE_LENGTH_MEASURE(1000.0),#212);
#137=FACE_BOUND('',#213,.T.);
#138=FACE_BOUND('',#214,.T.);
#139=CYLINDRICAL_SURFACE('',#215,2.5);
#140=SURFACE_STYLE_USAGE(.BOTH.,#216);
#141=CURVE_STYLE('',#217,POSITIVE_LENGTH_MEASURE(1000.0),#218);
#142=FACE_OUTER_BOUND('',#219,.T.);
#143=FACE_BOUND('',#220,.T.);
#144=PLANE('',#221);
#145=CURVE_STYLE('',#222,POSITIVE_LENGTH_MEASURE(1000.0),#223);
#146=VERTEX_POINT('',#224);
#147=CIRCLE('',#225,6.5);
#148=CURVE_STYLE('',#226,POSITIVE_LENGTH_MEASURE(1000.0),#227);
#149=VERTEX_POINT('',#228);
#150=CIRCLE('',#229,2.5);
#151=PRODUCT_CONTEXT('',#25,'mechanical');
#152=PRODUCT_DEFINITION_FORMATION_WITH_SPECIFIED_SOURCE(' ','NONE',#76,.NOT_KNOWN.);
#153=CARTESIAN_POINT('',(0.0,0.0,0.0));
#154=DIRECTION('',(0.0,0.0,1.0));
#155=DIRECTION('',(1.0,0.0,0.0));
#156= (NAMED_UNIT(#84)LENGTH_UNIT()SI_UNIT(.MILLI.,.METRE.));
#157=SURFACE_SIDE_STYLE('',(#231));
#158=DRAUGHTING_PRE_DEFINED_CURVE_FONT('continuous');
#159=COLOUR_RGB('',0.501960813999176,0.501960813999176,0.501960813999176);
#160=SURFACE_SIDE_STYLE('',(#232));
#161=DRAUGHTING_PRE_DEFINED_CURVE_FONT('continuous');
#162=COLOUR_RGB('',0.501960813999176,0.501960813999176,0.501960813999176);
#163=EDGE_LOOP('',(#233));
#164=EDGE_LOOP('',(#234));
#165=AXIS2_PLACEMENT_3D('',#235,#236,#237);
#166=SURFACE_SIDE_STYLE('',(#238));
#167=DRAUGHTING_PRE_DEFINED_CURVE_FONT('continuous');
#168=COLOUR_RGB('',0.501960813999176,0.501960813999176,0.501960813999176);
#169=EDGE_LOOP('',(#239));
#170=EDGE_LOOP('',(#240));
#171=AXIS2_PLACEMENT_3D('',#241,#242,#243);
#172=DRAUGHTING_PRE_DEFINED_CURVE_FONT('continuous');
#173=COLOUR_RGB('',0.501960813999176,0.501960813999176,0.501960813999176);
#174=CARTESIAN_POINT('',(-7.39557098644699E-032,6.0,7.34788079488412E-016));
#175=AXIS2_PLACEMENT_3D('',#244,#245,#246);
#176=DRAUGHTING_PRE_DEFINED_CURVE_FONT('continuous');
#177=COLOUR_RGB('',0.501960813999176,0.501960813999176,0.501960813999176);
#178=CARTESIAN_POINT('',(9.18485099360514E-017,6.5,-1.5));
#179=AXIS2_PLACEMENT_3D('',#247,#248,#249);
#180=SURFACE_SIDE_STYLE('',(#250));
#181=DRAUGHTING_PRE_DEFINED_CURVE_FONT('continuous');
#182=COLOUR_RGB('',0.501960813999176,0.501960813999176,0.501960813999176);
#183=EDGE_LOOP('',(#251));
#184=EDGE_LOOP('',(#252));
#185=AXIS2_PLACEMENT_3D('',#253,#254,#255);
#186=SURFACE_SIDE_STYLE('',(#256));
#187=DRAUGHTING_PRE_DEFINED_CURVE_FONT('continuous');
#188=COLOUR_RGB('',0.501960813999176,0.501960813999176,0.501960813999176);
#189=EDGE_LOOP('',(#257));
#190=EDGE_LOOP('',(#258));
#191=AXIS2_PLACEMENT_3D('',#259,#260,#261);
#192=DRAUGHTING_PRE_DEFINED_CURVE_FONT('continuous');
#193=COLOUR_RGB('',0.501960813999176,0.501960813999176,0.501960813999176);
#194=CARTESIAN_POINT('',(-1.86758636869971E-015,6.0,30.5));
#195=AXIS2_PLACEMENT_3D('',#262,#263,#264);
#196=DRAUGHTING_PRE_DEFINED_CURVE_FONT('continuous');
#197=COLOUR_RGB('',0.501960813999176,0.501960813999176,0.501960813999176);
#198=CARTESIAN_POINT('',(-1.86758636869971E-015,2.5,30.5));
#199=AXIS2_PLACEMENT_3D('',#265,#266,#267);
#200=DRAUGHTING_PRE_DEFINED_CURVE_FONT('continuous');
#201=COLOUR_RGB('',0.501960813999176,0.501960813999176,0.501960813999176);
#202=CARTESIAN_POINT('',(-9.18485099360516E-017,6.0,1.5));
#203=AXIS2_PLACEMENT_3D('',#268,#269,#270);
#204=SURFACE_SIDE_STYLE('',(#271));
#205=DRAUGHTING_PRE_DEFINED_CURVE_FONT('continuous');
#206=COLOUR_RGB('',0.501960813999176,0.501960813999176,0.501960813999176);
#207=EDGE_LOOP('',(#272));
#208=EDGE_LOOP('',(#273));
#209=AXIS2_PLACEMENT_3D('',#274,#275,#276);
#210=SURFACE_SIDE_STYLE('',(#277));
#211=DRAUGHTING_PRE_DEFINED_CURVE_FONT('continuous');
#212=COLOUR_RGB('',0.501960813999176,0.501960813999176,0.501960813999176);
#213=EDGE_LOOP('',(#278));
#214=EDGE_LOOP('',(#279));
#215=AXIS2_PLACEMENT_3D('',#280,#281,#282);
#216=SURFACE_SIDE_STYLE('',(#283));
#217=DRAUGHTING_PRE_DEFINED_CURVE_FONT('continuous');
#218=COLOUR_RGB('',0.501960813999176,0.501960813999176,0.501960813999176);
#219=EDGE_LOOP('',(#284));
#220=EDGE_LOOP('',(#285));
#221=AXIS2_PLACEMENT_3D('',#286,#287,#288);
#222=DRAUGHTING_PRE_DEFINED_CURVE_FONT('continuous');
#223=COLOUR_RGB('',0.501960813999176,0.501960813999176,0.501960813999176);
#224=CARTESIAN_POINT('',(-8.0118685686509E-032,6.5,7.96020419445779E-016));
#225=AXIS2_PLACEMENT_3D('',#289,#290,#291);
#226=DRAUGHTING_PRE_DEFINED_CURVE_FONT('continuous');
#227=COLOUR_RGB('',0.501960813999176,0.501960813999176,0.501960813999176);
#228=CARTESIAN_POINT('',(9.18485099360514E-017,2.5,-1.5));
#229=AXIS2_PLACEMENT_3D('',#292,#293,#294);
#231=SURFACE_STYLE_FILL_AREA(#295);
#232=SURFACE_STYLE_FILL_AREA(#296);
#233=ORIENTED_EDGE('',*,*,#58,.F.);
#234=ORIENTED_EDGE('',*,*,#60,.T.);
#235=CARTESIAN_POINT('',(-1.86758636869971E-015,4.25,30.5));
#236=DIRECTION('',(-6.12323399573677E-017,-1.22464679914735E-016,1.0));
#237=DIRECTION('',(1.23259516440783E-032,-1.0,-1.22464679914735E-016));
#238=SURFACE_STYLE_FILL_AREA(#297);
#239=ORIENTED_EDGE('',*,*,#62,.F.);
#240=ORIENTED_EDGE('',*,*,#58,.T.);
#241=CARTESIAN_POINT('',(-9.79717439317883E-016,-1.95943487863576E-015,16.0));
#242=DIRECTION('',(6.12323399573677E-017,1.22464679914735E-016,-1.0));
#243=DIRECTION('',(-1.23259516440783E-032,1.0,1.22464679914735E-016));
#244=CARTESIAN_POINT('',(0.0,0.0,0.0));
#245=DIRECTION('',(6.12323399573677E-017,1.22464679914735E-016,-1.0));
#246=DIRECTION('',(-1.23259516440783E-032,1.0,1.22464679914735E-016));
#247=CARTESIAN_POINT('',(9.18485099360515E-017,1.83697019872103E-016,-1.5));
#248=DIRECTION('',(6.12323399573677E-017,1.22464679914735E-016,-1.0));
#249=DIRECTION('',(-1.23259516440783E-032,1.0,1.22464679914735E-016));
#250=SURFACE_STYLE_FILL_AREA(#298);
#251=ORIENTED_EDGE('',*,*,#50,.F.);
#252=ORIENTED_EDGE('',*,*,#73,.T.);
#253=CARTESIAN_POINT('',(4.59242549680257E-017,9.18485099360515E-017,-0.75));
#254=DIRECTION('',(6.12323399573677E-017,1.22464679914735E-016,-1.0));
#255=DIRECTION('',(-1.23259516440783E-032,1.0,1.22464679914735E-016));
#256=SURFACE_STYLE_FILL_AREA(#299);
#257=ORIENTED_EDGE('',*,*,#75,.F.);
#258=ORIENTED_EDGE('',*,*,#50,.T.);
#259=CARTESIAN_POINT('',(9.18485099360514E-017,4.5,-1.5));
#260=DIRECTION('',(6.12323399573677E-017,1.22464679914735E-016,-1.0));
#261=DIRECTION('',(-1.23259516440783E-032,1.0,1.22464679914735E-016));
#262=CARTESIAN_POINT('',(-1.86758636869971E-015,-3.73517273739943E-015,30.5));
#263=DIRECTION('',(6.12323399573677E-017,1.22464679914735E-016,-1.0));
#264=DIRECTION('',(-1.23259516440783E-032,1.0,1.22464679914735E-016));
#265=CARTESIAN_POINT('',(-1.86758636869971E-015,-3.73517273739943E-015,30.5));
#266=DIRECTION('',(6.12323399573677E-017,1.22464679914735E-016,-1.0));
#267=DIRECTION('',(-1.23259516440783E-032,1.0,1.22464679914735E-016));
#268=CARTESIAN_POINT('',(-9.18485099360515E-017,-1.83697019872103E-016,1.5));
#269=DIRECTION('',(6.12323399573677E-017,1.22464679914735E-016,-1.0));
#270=DIRECTION('',(-1.23259516440783E-032,1.0,1.22464679914735E-016));
#271=SURFACE_STYLE_FILL_AREA(#300);
#272=ORIENTED_EDGE('',*,*,#48,.F.);
#273=ORIENTED_EDGE('',*,*,#62,.T.);
#274=CARTESIAN_POINT('',(-4.59242549680257E-017,-9.18485099360515E-017,0.75));
#275=DIRECTION('',(6.12323399573677E-017,1.22464679914735E-016,-1.0));
#276=DIRECTION('',(-1.0,-4.82715273076902E-033,-6.12323399573677E-017));
#277=SURFACE_STYLE_FILL_AREA(#301);
#278=ORIENTED_EDGE('',*,*,#60,.F.);
#279=ORIENTED_EDGE('',*,*,#75,.T.);
#280=CARTESIAN_POINT('',(-8.87868929381831E-016,-1.77573785876366E-015,14.5));
#281=DIRECTION('',(6.12323399573677E-017,1.22464679914735E-016,-1.0));
#282=DIRECTION('',(-1.23259516440783E-032,1.0,1.22464679914735E-016));
#283=SURFACE_STYLE_FILL_AREA(#302);
#284=ORIENTED_EDGE('',*,*,#73,.F.);
#285=ORIENTED_EDGE('',*,*,#48,.T.);
#286=CARTESIAN_POINT('',(-7.70371977754894E-032,6.25,7.65404249467096E-016));
#287=DIRECTION('',(-6.12323399573677E-017,-1.22464679914735E-016,1.0));
#288=DIRECTION('',(1.23259516440783E-032,-1.0,-1.22464679914735E-016));
#289=CARTESIAN_POINT('',(0.0,0.0,0.0));
#290=DIRECTION('',(6.12323399573677E-017,1.22464679914735E-016,-1.0));
#291=DIRECTION('',(-1.23259516440783E-032,1.0,1.22464679914735E-016));
#292=CARTESIAN_POINT('',(9.18485099360515E-017,1.83697019872103E-016,-1.5));
#293=DIRECTION('',(6.12323399573677E-017,1.22464679914735E-016,-1.0));
#294=DIRECTION('',(-1.23259516440783E-032,1.0,1.22464679914735E-016));
#295=FILL_AREA_STYLE('',(#303));
#296=FILL_AREA_STYLE('',(#304));
#297=FILL_AREA_STYLE('',(#305));
#298=FILL_AREA_STYLE('',(#306));
#299=FILL_AREA_STYLE('',(#307));
#300=FILL_AREA_STYLE('',(#308));
#301=FILL_AREA_STYLE('',(#309));
#302=FILL_AREA_STYLE('',(#310));
#303=FILL_AREA_STYLE_COLOUR('',#311);
#304=FILL_AREA_STYLE_COLOUR('',#312);
#305=FILL_AREA_STYLE_COLOUR('',#313);
#306=FILL_AREA_STYLE_COLOUR('',#314);
#307=FILL_AREA_STYLE_COLOUR('',#315);
#308=FILL_AREA_STYLE_COLOUR('',#316);
#309=FILL_AREA_STYLE_COLOUR('',#317);
#310=FILL_AREA_STYLE_COLOUR('',#318);
#311=COLOUR_RGB('',0.501960813999176,0.501960813999176,0.501960813999176);
#312=COLOUR_RGB('',0.501960813999176,0.501960813999176,0.501960813999176);
#313=COLOUR_RGB('',0.501960813999176,0.501960813999176,0.501960813999176);
#314=COLOUR_RGB('',0.501960813999176,0.501960813999176,0.501960813999176);
#315=COLOUR_RGB('',0.501960813999176,0.501960813999176,0.501960813999176);
#316=COLOUR_RGB('',0.501960813999176,0.501960813999176,0.501960813999176);
#317=COLOUR_RGB('',0.501960813999176,0.501960813999176,0.501960813999176);
#318=COLOUR_RGB('',0.501960813999176,0.501960813999176,0.501960813999176);
ENDSEC;
END-ISO-10303-21;
