ISO-10303-21;
HEADER;
FILE_DESCRIPTION((''),'1');
FILE_NAME('T:/00_BIG-HP\X2\FF71FF6FFF8CFF9F\X0\/\X2\670065B0\X0\2025_HP\X2\FF71FF6FFF8CFF9F4E885B9AFF83FF9EFF70FF80\X0\/01_DXF\X2\FF83FF9EFF70FF80\X0\/LINK\X2\7528FF83FF9EFF70FF80\X0\/CK\X2\FF8DFF6FFF84FF9E30FBFF71FF78FF7EFF7BFF98\X0\/10_\X2\4ED54E0A305275284E38FF8AFF9EFF72FF84FF7CFF98FF70FF7DFF9E\X0\/09_\X2\4E38FF8AFF9EFF72FF847528FF7DFF84FF9AFF70FF84FF7AFF9AFF6FFF84\X0\/EC1008.stp','2024-09-09T06:50:36',(''),(''),'Spatial Interop R21 SP3','Kubotek KeyCreator 2011 V10.0.2 (22737)',' ');
FILE_SCHEMA(('automotive_design'));
ENDSEC;
DATA;
#1=MECHANICAL_DESIGN_GEOMETRIC_PRESENTATION_REPRESENTATION(' ',(#10,#11,#12,#13,#14,#15,#16,#17,#18,#19,#20,#21,#22,#23,#24),#6);
#2=PRODUCT_DEFINITION_CONTEXT('',#25,'design');
#3=APPLICATION_PROTOCOL_DEFINITION('INTERNATIONAL STANDARD','automotive_design',1994,#25);
#4=PRODUCT_CATEGORY_RELATIONSHIP('NONE','NONE',#26,#27);
#5=SHAPE_DEFINITION_REPRESENTATION(#28,#29);
#6= (GEOMETRIC_REPRESENTATION_CONTEXT(3)GLOBAL_UNCERTAINTY_ASSIGNED_CONTEXT((#32))GLOBAL_UNIT_ASSIGNED_CONTEXT((#34,#35,#36))REPRESENTATION_CONTEXT('NONE','WORKSPACE'));
#10=STYLED_ITEM('',(#38),#39);
#11=STYLED_ITEM('',(#40,#41),#42);
#12=STYLED_ITEM('',(#43,#44),#45);
#13=STYLED_ITEM('',(#46),#47);
#14=STYLED_ITEM('',(#48,#49),#50);
#15=STYLED_ITEM('',(#51,#52),#53);
#16=STYLED_ITEM('',(#54,#55),#56);
#17=STYLED_ITEM('',(#57),#58);
#18=STYLED_ITEM('',(#59),#60);
#19=STYLED_ITEM('',(#61,#62),#63);
#20=STYLED_ITEM('',(#64),#65);
#21=STYLED_ITEM('',(#66),#67);
#22=STYLED_ITEM('',(#68),#69);
#23=STYLED_ITEM('',(#70,#71),#72);
#24=STYLED_ITEM('',(#73,#74),#75);
#25=APPLICATION_CONTEXT(' ');
#26=PRODUCT_CATEGORY('part','NONE');
#27=PRODUCT_RELATED_PRODUCT_CATEGORY('detail',' ',(#76));
#28=PRODUCT_DEFINITION_SHAPE('NONE','NONE',#77);
#29=ADVANCED_BREP_SHAPE_REPRESENTATION('240[2]',(#42,#78),#6);
#32=UNCERTAINTY_MEASURE_WITH_UNIT(LENGTH_MEASURE(1.0E-006),#34,'','');
#34= (CONVERSION_BASED_UNIT('MILLIMETRE',#81)LENGTH_UNIT()NAMED_UNIT(#84));
#35= (NAMED_UNIT(#86)PLANE_ANGLE_UNIT()SI_UNIT($,.RADIAN.));
#36= (NAMED_UNIT(#86)SOLID_ANGLE_UNIT()SI_UNIT($,.STERADIAN.));
#38=PRESENTATION_STYLE_ASSIGNMENT((#92));
#39=EDGE_CURVE('240[2]',#93,#93,#94,.T.);
#40=PRESENTATION_STYLE_ASSIGNMENT((#95));
#41=PRESENTATION_STYLE_ASSIGNMENT((#96));
#42=MANIFOLD_SOLID_BREP('240[2]',#97);
#43=PRESENTATION_STYLE_ASSIGNMENT((#98));
#44=PRESENTATION_STYLE_ASSIGNMENT((#99));
#45=ADVANCED_FACE('240[2]',(#100,#101),#102,.F.);
#46=PRESENTATION_STYLE_ASSIGNMENT((#103));
#47=EDGE_CURVE('240[2]',#104,#104,#105,.T.);
#48=PRESENTATION_STYLE_ASSIGNMENT((#106));
#49=PRESENTATION_STYLE_ASSIGNMENT((#107));
#50=ADVANCED_FACE('240[2]',(#108,#109),#110,.T.);
#51=PRESENTATION_STYLE_ASSIGNMENT((#111));
#52=PRESENTATION_STYLE_ASSIGNMENT((#112));
#53=ADVANCED_FACE('240[2]',(#113,#114),#115,.T.);
#54=PRESENTATION_STYLE_ASSIGNMENT((#116));
#55=PRESENTATION_STYLE_ASSIGNMENT((#117));
#56=ADVANCED_FACE('240[2]',(#118,#119),#120,.T.);
#57=PRESENTATION_STYLE_ASSIGNMENT((#121));
#58=EDGE_CURVE('240[2]',#122,#122,#123,.T.);
#59=PRESENTATION_STYLE_ASSIGNMENT((#124));
#60=EDGE_CURVE('240[2]',#125,#125,#126,.T.);
#61=PRESENTATION_STYLE_ASSIGNMENT((#127));
#62=PRESENTATION_STYLE_ASSIGNMENT((#128));
#63=ADVANCED_FACE('240[2]',(#129,#130),#131,.T.);
#64=PRESENTATION_STYLE_ASSIGNMENT((#132));
#65=EDGE_CURVE('240[2]',#133,#133,#134,.T.);
#66=PRESENTATION_STYLE_ASSIGNMENT((#135));
#67=EDGE_CURVE('240[2]',#136,#136,#137,.T.);
#68=PRESENTATION_STYLE_ASSIGNMENT((#138));
#69=EDGE_CURVE('240[2]',#139,#139,#140,.T.);
#70=PRESENTATION_STYLE_ASSIGNMENT((#141));
#71=PRESENTATION_STYLE_ASSIGNMENT((#142));
#72=ADVANCED_FACE('240[2]',(#143,#144),#145,.T.);
#73=PRESENTATION_STYLE_ASSIGNMENT((#146));
#74=PRESENTATION_STYLE_ASSIGNMENT((#147));
#75=ADVANCED_FACE('240[2]',(#148,#149),#150,.T.);
#76=PRODUCT('240[2]','240[2]','PART-240[2]-DESC',(#151));
#77=PRODUCT_DEFINITION('NONE','NONE',#152,#2);
#78=AXIS2_PLACEMENT_3D('',#153,#154,#155);
#81=LENGTH_MEASURE_WITH_UNIT(LENGTH_MEASURE(1.0),#156);
#84=DIMENSIONAL_EXPONENTS(1.0,0.0,0.0,0.0,0.0,0.0,0.0);
#86=DIMENSIONAL_EXPONENTS(0.0,0.0,0.0,0.0,0.0,0.0,0.0);
#92=CURVE_STYLE('',#157,POSITIVE_LENGTH_MEASURE(1000.0),#158);
#93=VERTEX_POINT('',#159);
#94=CIRCLE('',#160,4.0);
#95=SURFACE_STYLE_USAGE(.BOTH.,#161);
#96=CURVE_STYLE('',#162,POSITIVE_LENGTH_MEASURE(1000.0),#163);
#97=CLOSED_SHELL('',(#63,#56,#53,#75,#50,#72,#45));
#98=SURFACE_STYLE_USAGE(.BOTH.,#164);
#99=CURVE_STYLE('',#165,POSITIVE_LENGTH_MEASURE(1000.0),#166);
#100=FACE_BOUND('',#167,.T.);
#101=FACE_BOUND('',#168,.T.);
#102=CYLINDRICAL_SURFACE('',#169,4.0);
#103=CURVE_STYLE('',#170,POSITIVE_LENGTH_MEASURE(1000.0),#171);
#104=VERTEX_POINT('',#172);
#105=CIRCLE('',#173,4.99999999999995);
#106=SURFACE_STYLE_USAGE(.BOTH.,#174);
#107=CURVE_STYLE('',#175,POSITIVE_LENGTH_MEASURE(1000.0),#176);
#108=FACE_BOUND('',#177,.T.);
#109=FACE_BOUND('',#178,.T.);
#110=CYLINDRICAL_SURFACE('',#179,5.49999999999997);
#111=SURFACE_STYLE_USAGE(.BOTH.,#180);
#112=CURVE_STYLE('',#181,POSITIVE_LENGTH_MEASURE(1000.0),#182);
#113=FACE_BOUND('',#183,.T.);
#114=FACE_BOUND('',#184,.T.);
#115=TOROIDAL_SURFACE('',#185,4.68749999999982,0.812500000000128);
#116=SURFACE_STYLE_USAGE(.BOTH.,#186);
#117=CURVE_STYLE('',#187,POSITIVE_LENGTH_MEASURE(1000.0),#188);
#118=FACE_BOUND('',#189,.T.);
#119=FACE_BOUND('',#190,.T.);
#120=CYLINDRICAL_SURFACE('',#191,4.99999999999996);
#121=CURVE_STYLE('',#192,POSITIVE_LENGTH_MEASURE(1000.0),#193);
#122=VERTEX_POINT('',#194);
#123=CIRCLE('',#195,5.49999999999997);
#124=CURVE_STYLE('',#196,POSITIVE_LENGTH_MEASURE(1000.0),#197);
#125=VERTEX_POINT('',#198);
#126=CIRCLE('',#199,4.99999999999995);
#127=SURFACE_STYLE_USAGE(.BOTH.,#200);
#128=CURVE_STYLE('',#201,POSITIVE_LENGTH_MEASURE(1000.0),#202);
#129=FACE_OUTER_BOUND('',#203,.T.);
#130=FACE_BOUND('',#204,.T.);
#131=PLANE('',#205);
#132=CURVE_STYLE('',#206,POSITIVE_LENGTH_MEASURE(1000.0),#207);
#133=VERTEX_POINT('',#208);
#134=CIRCLE('',#209,5.49999999999997);
#135=CURVE_STYLE('',#210,POSITIVE_LENGTH_MEASURE(1000.0),#211);
#136=VERTEX_POINT('',#212);
#137=CIRCLE('',#213,4.0);
#138=CURVE_STYLE('',#214,POSITIVE_LENGTH_MEASURE(1000.0),#215);
#139=VERTEX_POINT('',#216);
#140=CIRCLE('',#217,4.99999999999997);
#141=SURFACE_STYLE_USAGE(.BOTH.,#218);
#142=CURVE_STYLE('',#219,POSITIVE_LENGTH_MEASURE(1000.0),#220);
#143=FACE_BOUND('',#221,.T.);
#144=FACE_OUTER_BOUND('',#222,.T.);
#145=PLANE('',#223);
#146=SURFACE_STYLE_USAGE(.BOTH.,#224);
#147=CURVE_STYLE('',#225,POSITIVE_LENGTH_MEASURE(1000.0),#226);
#148=FACE_OUTER_BOUND('',#227,.T.);
#149=FACE_BOUND('',#228,.T.);
#150=PLANE('',#229);
#151=PRODUCT_CONTEXT('',#25,'mechanical');
#152=PRODUCT_DEFINITION_FORMATION_WITH_SPECIFIED_SOURCE(' ','NONE',#76,.NOT_KNOWN.);
#153=CARTESIAN_POINT('',(0.0,0.0,0.0));
#154=DIRECTION('',(0.0,0.0,1.0));
#155=DIRECTION('',(1.0,0.0,0.0));
#156= (NAMED_UNIT(#84)LENGTH_UNIT()SI_UNIT(.MILLI.,.METRE.));
#157=DRAUGHTING_PRE_DEFINED_CURVE_FONT('continuous');
#158=COLOUR_RGB('',0.501960813999176,0.501960813999176,0.501960813999176);
#159=CARTESIAN_POINT('',(6.12323399573676E-017,3.99999999999999,-1.0));
#160=AXIS2_PLACEMENT_3D('',#231,#232,#233);
#161=SURFACE_SIDE_STYLE('',(#234));
#162=DRAUGHTING_PRE_DEFINED_CURVE_FONT('continuous');
#163=COLOUR_RGB('',0.501960813999176,0.501960813999176,0.501960813999176);
#164=SURFACE_SIDE_STYLE('',(#235));
#165=DRAUGHTING_PRE_DEFINED_CURVE_FONT('continuous');
#166=COLOUR_RGB('',0.501960813999176,0.501960813999176,0.501960813999176);
#167=EDGE_LOOP('',(#236));
#168=EDGE_LOOP('',(#237));
#169=AXIS2_PLACEMENT_3D('',#238,#239,#240);
#170=DRAUGHTING_PRE_DEFINED_CURVE_FONT('continuous');
#171=COLOUR_RGB('',0.501960813999176,0.501960813999176,0.501960813999176);
#172=CARTESIAN_POINT('',(-9.1848509936062E-017,4.99999999999994,1.50000000000017));
#173=AXIS2_PLACEMENT_3D('',#241,#242,#243);
#174=SURFACE_SIDE_STYLE('',(#244));
#175=DRAUGHTING_PRE_DEFINED_CURVE_FONT('continuous');
#176=COLOUR_RGB('',0.501960813999176,0.501960813999176,0.501960813999176);
#177=EDGE_LOOP('',(#245));
#178=EDGE_LOOP('',(#246));
#179=AXIS2_PLACEMENT_3D('',#247,#248,#249);
#180=SURFACE_SIDE_STYLE('',(#250));
#181=DRAUGHTING_PRE_DEFINED_CURVE_FONT('continuous');
#182=COLOUR_RGB('',0.501960813999176,0.501960813999176,0.501960813999176);
#183=EDGE_LOOP('',(#251));
#184=EDGE_LOOP('',(#252));
#185=AXIS2_PLACEMENT_3D('',#253,#254,#255);
#186=SURFACE_SIDE_STYLE('',(#256));
#187=DRAUGHTING_PRE_DEFINED_CURVE_FONT('continuous');
#188=COLOUR_RGB('',0.501960813999176,0.501960813999176,0.501960813999176);
#189=EDGE_LOOP('',(#257));
#190=EDGE_LOOP('',(#258));
#191=AXIS2_PLACEMENT_3D('',#259,#260,#261);
#192=DRAUGHTING_PRE_DEFINED_CURVE_FONT('continuous');
#193=COLOUR_RGB('',0.501960813999176,0.501960813999176,0.501960813999176);
#194=CARTESIAN_POINT('',(6.12323399573676E-017,5.49999999999996,-0.999999999999999));
#195=AXIS2_PLACEMENT_3D('',#262,#263,#264);
#196=DRAUGHTING_PRE_DEFINED_CURVE_FONT('continuous');
#197=COLOUR_RGB('',0.501960813999176,0.501960813999176,0.501960813999176);
#198=CARTESIAN_POINT('',(-6.16297582203909E-032,4.99999999999995,6.1232339957367E-016));
#199=AXIS2_PLACEMENT_3D('',#265,#266,#267);
#200=SURFACE_SIDE_STYLE('',(#268));
#201=DRAUGHTING_PRE_DEFINED_CURVE_FONT('continuous');
#202=COLOUR_RGB('',0.501960813999176,0.501960813999176,0.501960813999176);
#203=EDGE_LOOP('',(#269));
#204=EDGE_LOOP('',(#270));
#205=AXIS2_PLACEMENT_3D('',#271,#272,#273);
#206=DRAUGHTING_PRE_DEFINED_CURVE_FONT('continuous');
#207=COLOUR_RGB('',0.501960813999176,0.501960813999176,0.501960813999176);
#208=CARTESIAN_POINT('',(-6.77927340424302E-032,5.49999999999996,6.73555739531039E-016));
#209=AXIS2_PLACEMENT_3D('',#274,#275,#276);
#210=DRAUGHTING_PRE_DEFINED_CURVE_FONT('continuous');
#211=COLOUR_RGB('',0.501960813999176,0.501960813999176,0.501960813999176);
#212=CARTESIAN_POINT('',(-1.50019232895551E-015,3.99999999999999,24.5));
#213=AXIS2_PLACEMENT_3D('',#277,#278,#279);
#214=DRAUGHTING_PRE_DEFINED_CURVE_FONT('continuous');
#215=COLOUR_RGB('',0.501960813999176,0.501960813999176,0.501960813999176);
#216=CARTESIAN_POINT('',(-1.50019232895551E-015,4.99999999999996,24.5));
#217=AXIS2_PLACEMENT_3D('',#280,#281,#282);
#218=SURFACE_SIDE_STYLE('',(#283));
#219=DRAUGHTING_PRE_DEFINED_CURVE_FONT('continuous');
#220=COLOUR_RGB('',0.501960813999176,0.501960813999176,0.501960813999176);
#221=EDGE_LOOP('',(#284));
#222=EDGE_LOOP('',(#285));
#223=AXIS2_PLACEMENT_3D('',#286,#287,#288);
#224=SURFACE_SIDE_STYLE('',(#289));
#225=DRAUGHTING_PRE_DEFINED_CURVE_FONT('continuous');
#226=COLOUR_RGB('',0.501960813999176,0.501960813999176,0.501960813999176);
#227=EDGE_LOOP('',(#290));
#228=EDGE_LOOP('',(#291));
#229=AXIS2_PLACEMENT_3D('',#292,#293,#294);
#231=CARTESIAN_POINT('',(6.12323399573677E-017,-6.97753532008527E-015,-1.0));
#232=DIRECTION('',(6.12323399573677E-017,1.22464679914735E-016,-1.0));
#233=DIRECTION('',(-1.23259516440783E-032,1.0,1.22464679914735E-016));
#234=SURFACE_STYLE_FILL_AREA(#295);
#235=SURFACE_STYLE_FILL_AREA(#296);
#236=ORIENTED_EDGE('',*,*,#67,.F.);
#237=ORIENTED_EDGE('',*,*,#39,.T.);
#238=CARTESIAN_POINT('',(-7.1947999449907E-016,-8.53895998899814E-015,11.75));
#239=DIRECTION('',(6.12323399573677E-017,1.22464679914735E-016,-1.0));
#240=DIRECTION('',(-1.23259516440783E-032,1.0,1.22464679914735E-016));
#241=CARTESIAN_POINT('',(-9.18485099360619E-017,-7.28369701987212E-015,1.50000000000017));
#242=DIRECTION('',(6.12323399573677E-017,1.22464679914735E-016,-1.0));
#243=DIRECTION('',(-1.23259516440783E-032,1.0,1.22464679914735E-016));
#244=SURFACE_STYLE_FILL_AREA(#297);
#245=ORIENTED_EDGE('',*,*,#58,.F.);
#246=ORIENTED_EDGE('',*,*,#65,.T.);
#247=CARTESIAN_POINT('',(3.06161699786838E-017,-7.03876766004263E-015,-0.5));
#248=DIRECTION('',(6.12323399573677E-017,1.22464679914735E-016,-1.0));
#249=DIRECTION('',(-1.23259516440783E-032,1.0,1.22464679914735E-016));
#250=SURFACE_STYLE_FILL_AREA(#298);
#251=ORIENTED_EDGE('',*,*,#60,.F.);
#252=ORIENTED_EDGE('',*,*,#47,.T.);
#253=CARTESIAN_POINT('',(-4.59242549680309E-017,-7.19727586753706E-015,0.750000000000085));
#254=DIRECTION('',(6.12323399573677E-017,1.22464679914735E-016,-1.0));
#255=DIRECTION('',(-1.0,-4.82715273076902E-033,-6.12323399573677E-017));
#256=SURFACE_STYLE_FILL_AREA(#299);
#257=ORIENTED_EDGE('',*,*,#47,.F.);
#258=ORIENTED_EDGE('',*,*,#69,.T.);
#259=CARTESIAN_POINT('',(-7.96020419445784E-016,-8.69204083889157E-015,13.0000000000001));
#260=DIRECTION('',(6.12323399573677E-017,1.22464679914735E-016,-1.0));
#261=DIRECTION('',(-1.23259516440783E-032,1.0,1.22464679914735E-016));
#262=CARTESIAN_POINT('',(6.12323399573677E-017,-6.97753532008527E-015,-1.0));
#263=DIRECTION('',(6.12323399573677E-017,1.22464679914735E-016,-1.0));
#264=DIRECTION('',(-1.23259516440783E-032,1.0,1.22464679914735E-016));
#265=CARTESIAN_POINT('',(8.7514256672956E-047,-7.1E-015,-8.69499227394621E-031));
#266=DIRECTION('',(6.12323399573677E-017,1.22464679914735E-016,-1.0));
#267=DIRECTION('',(-1.23259516440783E-032,1.0,1.22464679914735E-016));
#268=SURFACE_STYLE_FILL_AREA(#300);
#269=ORIENTED_EDGE('',*,*,#69,.F.);
#270=ORIENTED_EDGE('',*,*,#67,.T.);
#271=CARTESIAN_POINT('',(-1.50019232895551E-015,4.49999999999997,24.5));
#272=DIRECTION('',(-6.12323399573677E-017,-1.22464679914735E-016,1.0));
#273=DIRECTION('',(1.23259516440783E-032,-1.0,-1.22464679914735E-016));
#274=CARTESIAN_POINT('',(8.7514256672956E-047,-7.1E-015,-8.69499227394621E-031));
#275=DIRECTION('',(6.12323399573677E-017,1.22464679914735E-016,-1.0));
#276=DIRECTION('',(-1.23259516440783E-032,1.0,1.22464679914735E-016));
#277=CARTESIAN_POINT('',(-1.50019232895551E-015,-1.0100384657911E-014,24.5));
#278=DIRECTION('',(6.12323399573677E-017,1.22464679914735E-016,-1.0));
#279=DIRECTION('',(-1.23259516440783E-032,1.0,1.22464679914735E-016));
#280=CARTESIAN_POINT('',(-1.50019232895551E-015,-1.0100384657911E-014,24.5));
#281=DIRECTION('',(6.12323399573676E-017,1.22464679914735E-016,-1.0));
#282=DIRECTION('',(-1.23259516440783E-032,1.0,1.22464679914735E-016));
#283=SURFACE_STYLE_FILL_AREA(#301);
#284=ORIENTED_EDGE('',*,*,#39,.F.);
#285=ORIENTED_EDGE('',*,*,#58,.T.);
#286=CARTESIAN_POINT('',(6.12323399573676E-017,4.74999999999998,-0.999999999999999));
#287=DIRECTION('',(6.12323399573677E-017,1.22464679914735E-016,-1.0));
#288=DIRECTION('',(-1.23259516440783E-032,1.0,1.22464679914735E-016));
#289=SURFACE_STYLE_FILL_AREA(#302);
#290=ORIENTED_EDGE('',*,*,#65,.F.);
#291=ORIENTED_EDGE('',*,*,#60,.T.);
#292=CARTESIAN_POINT('',(-6.47112461314106E-032,5.24999999999995,6.42939569552355E-016));
#293=DIRECTION('',(-6.12323399573677E-017,-1.22464679914735E-016,1.0));
#294=DIRECTION('',(1.23259516440783E-032,-1.0,-1.22464679914735E-016));
#295=FILL_AREA_STYLE('',(#303));
#296=FILL_AREA_STYLE('',(#304));
#297=FILL_AREA_STYLE('',(#305));
#298=FILL_AREA_STYLE('',(#306));
#299=FILL_AREA_STYLE('',(#307));
#300=FILL_AREA_STYLE('',(#308));
#301=FILL_AREA_STYLE('',(#309));
#302=FILL_AREA_STYLE('',(#310));
#303=FILL_AREA_STYLE_COLOUR('',#311);
#304=FILL_AREA_STYLE_COLOUR('',#312);
#305=FILL_AREA_STYLE_COLOUR('',#313);
#306=FILL_AREA_STYLE_COLOUR('',#314);
#307=FILL_AREA_STYLE_COLOUR('',#315);
#308=FILL_AREA_STYLE_COLOUR('',#316);
#309=FILL_AREA_STYLE_COLOUR('',#317);
#310=FILL_AREA_STYLE_COLOUR('',#318);
#311=COLOUR_RGB('',0.501960813999176,0.501960813999176,0.501960813999176);
#312=COLOUR_RGB('',0.501960813999176,0.501960813999176,0.501960813999176);
#313=COLOUR_RGB('',0.501960813999176,0.501960813999176,0.501960813999176);
#314=COLOUR_RGB('',0.501960813999176,0.501960813999176,0.501960813999176);
#315=COLOUR_RGB('',0.501960813999176,0.501960813999176,0.501960813999176);
#316=COLOUR_RGB('',0.501960813999176,0.501960813999176,0.501960813999176);
#317=COLOUR_RGB('',0.501960813999176,0.501960813999176,0.501960813999176);
#318=COLOUR_RGB('',0.501960813999176,0.501960813999176,0.501960813999176);
ENDSEC;
END-ISO-10303-21;
