ISO-10303-21;
HEADER;
FILE_DESCRIPTION((''),'1');
FILE_NAME('T:/00_BIG-HP\X2\FF71FF6FFF8CFF9F\X0\/\X2\670065B0\X0\2025_HP\X2\FF71FF6FFF8CFF9F4E885B9AFF83FF9EFF70FF80\X0\/01_DXF\X2\FF83FF9EFF70FF80\X0\/LINK\X2\7528FF83FF9EFF70FF80\X0\/CK\X2\FF8DFF6FFF84FF9E30FBFF71FF78FF7EFF7BFF98\X0\/10_\X2\4ED54E0A305275284E38FF8AFF9EFF72FF84FF7CFF98FF70FF7DFF9E\X0\/09_\X2\4E38FF8AFF9EFF72FF847528FF7DFF84FF9AFF70FF84FF7AFF9AFF6FFF84\X0\/EC1007.stp','2024-09-09T06:46:00',(''),(''),'Spatial Interop R21 SP3','Kubotek KeyCreator 2011 V10.0.2 (22737)',' ');
FILE_SCHEMA(('automotive_design'));
ENDSEC;
DATA;
#1=MECHANICAL_DESIGN_GEOMETRIC_PRESENTATION_REPRESENTATION(' ',(#10,#11,#12,#13,#14,#15,#16,#17,#18,#19,#20,#21,#22,#23,#24),#6);
#2=PRODUCT_DEFINITION_CONTEXT('',#25,'design');
#3=APPLICATION_PROTOCOL_DEFINITION('INTERNATIONAL STANDARD','automotive_design',1994,#25);
#4=PRODUCT_CATEGORY_RELATIONSHIP('NONE','NONE',#26,#27);
#5=SHAPE_DEFINITION_REPRESENTATION(#28,#29);
#6= (GEOMETRIC_REPRESENTATION_CONTEXT(3)GLOBAL_UNCERTAINTY_ASSIGNED_CONTEXT((#32))GLOBAL_UNIT_ASSIGNED_CONTEXT((#34,#35,#36))REPRESENTATION_CONTEXT('NONE','WORKSPACE'));
#10=STYLED_ITEM('',(#38),#39);
#11=STYLED_ITEM('',(#40),#41);
#12=STYLED_ITEM('',(#42,#43),#44);
#13=STYLED_ITEM('',(#45),#46);
#14=STYLED_ITEM('',(#47),#48);
#15=STYLED_ITEM('',(#49,#50),#51);
#16=STYLED_ITEM('',(#52,#53),#54);
#17=STYLED_ITEM('',(#55),#56);
#18=STYLED_ITEM('',(#57,#58),#59);
#19=STYLED_ITEM('',(#60,#61),#62);
#20=STYLED_ITEM('',(#63,#64),#65);
#21=STYLED_ITEM('',(#66),#67);
#22=STYLED_ITEM('',(#68,#69),#70);
#23=STYLED_ITEM('',(#71),#72);
#24=STYLED_ITEM('',(#73,#74),#75);
#25=APPLICATION_CONTEXT(' ');
#26=PRODUCT_CATEGORY('part','NONE');
#27=PRODUCT_RELATED_PRODUCT_CATEGORY('detail',' ',(#76));
#28=PRODUCT_DEFINITION_SHAPE('NONE','NONE',#77);
#29=ADVANCED_BREP_SHAPE_REPRESENTATION('240[2]',(#54,#78),#6);
#32=UNCERTAINTY_MEASURE_WITH_UNIT(LENGTH_MEASURE(1.0E-006),#34,'','');
#34= (CONVERSION_BASED_UNIT('MILLIMETRE',#81)LENGTH_UNIT()NAMED_UNIT(#84));
#35= (NAMED_UNIT(#86)PLANE_ANGLE_UNIT()SI_UNIT($,.RADIAN.));
#36= (NAMED_UNIT(#86)SOLID_ANGLE_UNIT()SI_UNIT($,.STERADIAN.));
#38=PRESENTATION_STYLE_ASSIGNMENT((#92));
#39=EDGE_CURVE('240[2]',#93,#93,#94,.T.);
#40=PRESENTATION_STYLE_ASSIGNMENT((#95));
#41=EDGE_CURVE('240[2]',#96,#96,#97,.T.);
#42=PRESENTATION_STYLE_ASSIGNMENT((#98));
#43=PRESENTATION_STYLE_ASSIGNMENT((#99));
#44=ADVANCED_FACE('240[2]',(#100,#101),#102,.F.);
#45=PRESENTATION_STYLE_ASSIGNMENT((#103));
#46=EDGE_CURVE('240[2]',#104,#104,#105,.T.);
#47=PRESENTATION_STYLE_ASSIGNMENT((#106));
#48=EDGE_CURVE('240[2]',#107,#107,#108,.T.);
#49=PRESENTATION_STYLE_ASSIGNMENT((#109));
#50=PRESENTATION_STYLE_ASSIGNMENT((#110));
#51=ADVANCED_FACE('240[2]',(#111,#112),#113,.T.);
#52=PRESENTATION_STYLE_ASSIGNMENT((#114));
#53=PRESENTATION_STYLE_ASSIGNMENT((#115));
#54=MANIFOLD_SOLID_BREP('240[2]',#116);
#55=PRESENTATION_STYLE_ASSIGNMENT((#117));
#56=EDGE_CURVE('240[2]',#118,#118,#119,.T.);
#57=PRESENTATION_STYLE_ASSIGNMENT((#120));
#58=PRESENTATION_STYLE_ASSIGNMENT((#121));
#59=ADVANCED_FACE('240[2]',(#122,#123),#124,.T.);
#60=PRESENTATION_STYLE_ASSIGNMENT((#125));
#61=PRESENTATION_STYLE_ASSIGNMENT((#126));
#62=ADVANCED_FACE('240[2]',(#127,#128),#129,.T.);
#63=PRESENTATION_STYLE_ASSIGNMENT((#130));
#64=PRESENTATION_STYLE_ASSIGNMENT((#131));
#65=ADVANCED_FACE('240[2]',(#132,#133),#134,.T.);
#66=PRESENTATION_STYLE_ASSIGNMENT((#135));
#67=EDGE_CURVE('240[2]',#136,#136,#137,.T.);
#68=PRESENTATION_STYLE_ASSIGNMENT((#138));
#69=PRESENTATION_STYLE_ASSIGNMENT((#139));
#70=ADVANCED_FACE('240[2]',(#140,#141),#142,.T.);
#71=PRESENTATION_STYLE_ASSIGNMENT((#143));
#72=EDGE_CURVE('240[2]',#144,#144,#145,.T.);
#73=PRESENTATION_STYLE_ASSIGNMENT((#146));
#74=PRESENTATION_STYLE_ASSIGNMENT((#147));
#75=ADVANCED_FACE('240[2]',(#148,#149),#150,.T.);
#76=PRODUCT('240[2]','240[2]','PART-240[2]-DESC',(#151));
#77=PRODUCT_DEFINITION('NONE','NONE',#152,#2);
#78=AXIS2_PLACEMENT_3D('',#153,#154,#155);
#81=LENGTH_MEASURE_WITH_UNIT(LENGTH_MEASURE(1.0),#156);
#84=DIMENSIONAL_EXPONENTS(1.0,0.0,0.0,0.0,0.0,0.0,0.0);
#86=DIMENSIONAL_EXPONENTS(0.0,0.0,0.0,0.0,0.0,0.0,0.0);
#92=CURVE_STYLE('',#157,POSITIVE_LENGTH_MEASURE(1000.0),#158);
#93=VERTEX_POINT('',#159);
#94=CIRCLE('',#160,4.99999999999995);
#95=CURVE_STYLE('',#161,POSITIVE_LENGTH_MEASURE(1000.0),#162);
#96=VERTEX_POINT('',#163);
#97=CIRCLE('',#164,3.5);
#98=SURFACE_STYLE_USAGE(.BOTH.,#165);
#99=CURVE_STYLE('',#166,POSITIVE_LENGTH_MEASURE(1000.0),#167);
#100=FACE_BOUND('',#168,.T.);
#101=FACE_BOUND('',#169,.T.);
#102=CYLINDRICAL_SURFACE('',#170,3.5);
#103=CURVE_STYLE('',#171,POSITIVE_LENGTH_MEASURE(1000.0),#172);
#104=VERTEX_POINT('',#173);
#105=CIRCLE('',#174,3.5);
#106=CURVE_STYLE('',#175,POSITIVE_LENGTH_MEASURE(1000.0),#176);
#107=VERTEX_POINT('',#177);
#108=CIRCLE('',#178,4.99999999999995);
#109=SURFACE_STYLE_USAGE(.BOTH.,#179);
#110=CURVE_STYLE('',#180,POSITIVE_LENGTH_MEASURE(1000.0),#181);
#111=FACE_BOUND('',#182,.T.);
#112=FACE_BOUND('',#183,.T.);
#113=CYLINDRICAL_SURFACE('',#184,4.99999999999996);
#114=SURFACE_STYLE_USAGE(.BOTH.,#185);
#115=CURVE_STYLE('',#186,POSITIVE_LENGTH_MEASURE(1000.0),#187);
#116=CLOSED_SHELL('',(#75,#51,#62,#59,#65,#70,#44));
#117=CURVE_STYLE('',#188,POSITIVE_LENGTH_MEASURE(1000.0),#189);
#118=VERTEX_POINT('',#190);
#119=CIRCLE('',#191,4.99999999999997);
#120=SURFACE_STYLE_USAGE(.BOTH.,#192);
#121=CURVE_STYLE('',#193,POSITIVE_LENGTH_MEASURE(1000.0),#194);
#122=FACE_OUTER_BOUND('',#195,.T.);
#123=FACE_BOUND('',#196,.T.);
#124=PLANE('',#197);
#125=SURFACE_STYLE_USAGE(.BOTH.,#198);
#126=CURVE_STYLE('',#199,POSITIVE_LENGTH_MEASURE(1000.0),#200);
#127=FACE_BOUND('',#201,.T.);
#128=FACE_BOUND('',#202,.T.);
#129=TOROIDAL_SURFACE('',#203,4.68749999999982,0.812500000000128);
#130=SURFACE_STYLE_USAGE(.BOTH.,#204);
#131=CURVE_STYLE('',#205,POSITIVE_LENGTH_MEASURE(1000.0),#206);
#132=FACE_BOUND('',#207,.T.);
#133=FACE_BOUND('',#208,.T.);
#134=CYLINDRICAL_SURFACE('',#209,5.49999999999997);
#135=CURVE_STYLE('',#210,POSITIVE_LENGTH_MEASURE(1000.0),#211);
#136=VERTEX_POINT('',#212);
#137=CIRCLE('',#213,5.49999999999997);
#138=SURFACE_STYLE_USAGE(.BOTH.,#214);
#139=CURVE_STYLE('',#215,POSITIVE_LENGTH_MEASURE(1000.0),#216);
#140=FACE_BOUND('',#217,.T.);
#141=FACE_OUTER_BOUND('',#218,.T.);
#142=PLANE('',#219);
#143=CURVE_STYLE('',#220,POSITIVE_LENGTH_MEASURE(1000.0),#221);
#144=VERTEX_POINT('',#222);
#145=CIRCLE('',#223,5.49999999999997);
#146=SURFACE_STYLE_USAGE(.BOTH.,#224);
#147=CURVE_STYLE('',#225,POSITIVE_LENGTH_MEASURE(1000.0),#226);
#148=FACE_OUTER_BOUND('',#227,.T.);
#149=FACE_BOUND('',#228,.T.);
#150=PLANE('',#229);
#151=PRODUCT_CONTEXT('',#25,'mechanical');
#152=PRODUCT_DEFINITION_FORMATION_WITH_SPECIFIED_SOURCE(' ','NONE',#76,.NOT_KNOWN.);
#153=CARTESIAN_POINT('',(0.0,0.0,0.0));
#154=DIRECTION('',(0.0,0.0,1.0));
#155=DIRECTION('',(1.0,0.0,0.0));
#156= (NAMED_UNIT(#84)LENGTH_UNIT()SI_UNIT(.MILLI.,.METRE.));
#157=DRAUGHTING_PRE_DEFINED_CURVE_FONT('continuous');
#158=COLOUR_RGB('',0.501960813999176,0.501960813999176,0.501960813999176);
#159=CARTESIAN_POINT('',(-6.16297582203909E-032,4.99999999999995,6.1232339957367E-016));
#160=AXIS2_PLACEMENT_3D('',#231,#232,#233);
#161=DRAUGHTING_PRE_DEFINED_CURVE_FONT('continuous');
#162=COLOUR_RGB('',0.501960813999176,0.501960813999176,0.501960813999176);
#163=CARTESIAN_POINT('',(6.12323399573676E-017,3.49999999999999,-1.0));
#164=AXIS2_PLACEMENT_3D('',#234,#235,#236);
#165=SURFACE_SIDE_STYLE('',(#237));
#166=DRAUGHTING_PRE_DEFINED_CURVE_FONT('continuous');
#167=COLOUR_RGB('',0.501960813999176,0.501960813999176,0.501960813999176);
#168=EDGE_LOOP('',(#238));
#169=EDGE_LOOP('',(#239));
#170=AXIS2_PLACEMENT_3D('',#240,#241,#242);
#171=DRAUGHTING_PRE_DEFINED_CURVE_FONT('continuous');
#172=COLOUR_RGB('',0.501960813999176,0.501960813999176,0.501960813999176);
#173=CARTESIAN_POINT('',(-1.50019232895551E-015,3.49999999999999,24.5));
#174=AXIS2_PLACEMENT_3D('',#243,#244,#245);
#175=DRAUGHTING_PRE_DEFINED_CURVE_FONT('continuous');
#176=COLOUR_RGB('',0.501960813999176,0.501960813999176,0.501960813999176);
#177=CARTESIAN_POINT('',(-9.1848509936062E-017,4.99999999999994,1.50000000000017));
#178=AXIS2_PLACEMENT_3D('',#246,#247,#248);
#179=SURFACE_SIDE_STYLE('',(#249));
#180=DRAUGHTING_PRE_DEFINED_CURVE_FONT('continuous');
#181=COLOUR_RGB('',0.501960813999176,0.501960813999176,0.501960813999176);
#182=EDGE_LOOP('',(#250));
#183=EDGE_LOOP('',(#251));
#184=AXIS2_PLACEMENT_3D('',#252,#253,#254);
#185=SURFACE_SIDE_STYLE('',(#255));
#186=DRAUGHTING_PRE_DEFINED_CURVE_FONT('continuous');
#187=COLOUR_RGB('',0.501960813999176,0.501960813999176,0.501960813999176);
#188=DRAUGHTING_PRE_DEFINED_CURVE_FONT('continuous');
#189=COLOUR_RGB('',0.501960813999176,0.501960813999176,0.501960813999176);
#190=CARTESIAN_POINT('',(-1.50019232895551E-015,4.99999999999996,24.5));
#191=AXIS2_PLACEMENT_3D('',#256,#257,#258);
#192=SURFACE_SIDE_STYLE('',(#259));
#193=DRAUGHTING_PRE_DEFINED_CURVE_FONT('continuous');
#194=COLOUR_RGB('',0.501960813999176,0.501960813999176,0.501960813999176);
#195=EDGE_LOOP('',(#260));
#196=EDGE_LOOP('',(#261));
#197=AXIS2_PLACEMENT_3D('',#262,#263,#264);
#198=SURFACE_SIDE_STYLE('',(#265));
#199=DRAUGHTING_PRE_DEFINED_CURVE_FONT('continuous');
#200=COLOUR_RGB('',0.501960813999176,0.501960813999176,0.501960813999176);
#201=EDGE_LOOP('',(#266));
#202=EDGE_LOOP('',(#267));
#203=AXIS2_PLACEMENT_3D('',#268,#269,#270);
#204=SURFACE_SIDE_STYLE('',(#271));
#205=DRAUGHTING_PRE_DEFINED_CURVE_FONT('continuous');
#206=COLOUR_RGB('',0.501960813999176,0.501960813999176,0.501960813999176);
#207=EDGE_LOOP('',(#272));
#208=EDGE_LOOP('',(#273));
#209=AXIS2_PLACEMENT_3D('',#274,#275,#276);
#210=DRAUGHTING_PRE_DEFINED_CURVE_FONT('continuous');
#211=COLOUR_RGB('',0.501960813999176,0.501960813999176,0.501960813999176);
#212=CARTESIAN_POINT('',(-6.77927340424302E-032,5.49999999999996,6.73555739531039E-016));
#213=AXIS2_PLACEMENT_3D('',#277,#278,#279);
#214=SURFACE_SIDE_STYLE('',(#280));
#215=DRAUGHTING_PRE_DEFINED_CURVE_FONT('continuous');
#216=COLOUR_RGB('',0.501960813999176,0.501960813999176,0.501960813999176);
#217=EDGE_LOOP('',(#281));
#218=EDGE_LOOP('',(#282));
#219=AXIS2_PLACEMENT_3D('',#283,#284,#285);
#220=DRAUGHTING_PRE_DEFINED_CURVE_FONT('continuous');
#221=COLOUR_RGB('',0.501960813999176,0.501960813999176,0.501960813999176);
#222=CARTESIAN_POINT('',(6.12323399573676E-017,5.49999999999996,-0.999999999999999));
#223=AXIS2_PLACEMENT_3D('',#286,#287,#288);
#224=SURFACE_SIDE_STYLE('',(#289));
#225=DRAUGHTING_PRE_DEFINED_CURVE_FONT('continuous');
#226=COLOUR_RGB('',0.501960813999176,0.501960813999176,0.501960813999176);
#227=EDGE_LOOP('',(#290));
#228=EDGE_LOOP('',(#291));
#229=AXIS2_PLACEMENT_3D('',#292,#293,#294);
#231=CARTESIAN_POINT('',(8.7514256672956E-047,-7.1E-015,-8.69499227394621E-031));
#232=DIRECTION('',(6.12323399573677E-017,1.22464679914735E-016,-1.0));
#233=DIRECTION('',(-1.23259516440783E-032,1.0,1.22464679914735E-016));
#234=CARTESIAN_POINT('',(6.12323399573677E-017,-6.97753532008527E-015,-1.0));
#235=DIRECTION('',(6.12323399573677E-017,1.22464679914735E-016,-1.0));
#236=DIRECTION('',(-1.23259516440783E-032,1.0,1.22464679914735E-016));
#237=SURFACE_STYLE_FILL_AREA(#295);
#238=ORIENTED_EDGE('',*,*,#46,.F.);
#239=ORIENTED_EDGE('',*,*,#41,.T.);
#240=CARTESIAN_POINT('',(-7.1947999449907E-016,-8.53895998899814E-015,11.75));
#241=DIRECTION('',(6.12323399573677E-017,1.22464679914735E-016,-1.0));
#242=DIRECTION('',(-1.23259516440783E-032,1.0,1.22464679914735E-016));
#243=CARTESIAN_POINT('',(-1.50019232895551E-015,-1.0100384657911E-014,24.5));
#244=DIRECTION('',(6.12323399573677E-017,1.22464679914735E-016,-1.0));
#245=DIRECTION('',(-1.23259516440783E-032,1.0,1.22464679914735E-016));
#246=CARTESIAN_POINT('',(-9.18485099360619E-017,-7.28369701987212E-015,1.50000000000017));
#247=DIRECTION('',(6.12323399573677E-017,1.22464679914735E-016,-1.0));
#248=DIRECTION('',(-1.23259516440783E-032,1.0,1.22464679914735E-016));
#249=SURFACE_STYLE_FILL_AREA(#296);
#250=ORIENTED_EDGE('',*,*,#48,.F.);
#251=ORIENTED_EDGE('',*,*,#56,.T.);
#252=CARTESIAN_POINT('',(-7.96020419445784E-016,-8.69204083889157E-015,13.0000000000001));
#253=DIRECTION('',(6.12323399573677E-017,1.22464679914735E-016,-1.0));
#254=DIRECTION('',(-1.23259516440783E-032,1.0,1.22464679914735E-016));
#255=SURFACE_STYLE_FILL_AREA(#297);
#256=CARTESIAN_POINT('',(-1.50019232895551E-015,-1.0100384657911E-014,24.5));
#257=DIRECTION('',(6.12323399573676E-017,1.22464679914735E-016,-1.0));
#258=DIRECTION('',(-1.23259516440783E-032,1.0,1.22464679914735E-016));
#259=SURFACE_STYLE_FILL_AREA(#298);
#260=ORIENTED_EDGE('',*,*,#67,.F.);
#261=ORIENTED_EDGE('',*,*,#39,.T.);
#262=CARTESIAN_POINT('',(-6.47112461314106E-032,5.24999999999995,6.42939569552355E-016));
#263=DIRECTION('',(-6.12323399573677E-017,-1.22464679914735E-016,1.0));
#264=DIRECTION('',(1.23259516440783E-032,-1.0,-1.22464679914735E-016));
#265=SURFACE_STYLE_FILL_AREA(#299);
#266=ORIENTED_EDGE('',*,*,#39,.F.);
#267=ORIENTED_EDGE('',*,*,#48,.T.);
#268=CARTESIAN_POINT('',(-4.59242549680309E-017,-7.19727586753706E-015,0.750000000000085));
#269=DIRECTION('',(6.12323399573677E-017,1.22464679914735E-016,-1.0));
#270=DIRECTION('',(-1.0,-4.82715273076902E-033,-6.12323399573677E-017));
#271=SURFACE_STYLE_FILL_AREA(#300);
#272=ORIENTED_EDGE('',*,*,#72,.F.);
#273=ORIENTED_EDGE('',*,*,#67,.T.);
#274=CARTESIAN_POINT('',(3.06161699786838E-017,-7.03876766004263E-015,-0.5));
#275=DIRECTION('',(6.12323399573677E-017,1.22464679914735E-016,-1.0));
#276=DIRECTION('',(-1.23259516440783E-032,1.0,1.22464679914735E-016));
#277=CARTESIAN_POINT('',(8.7514256672956E-047,-7.1E-015,-8.69499227394621E-031));
#278=DIRECTION('',(6.12323399573677E-017,1.22464679914735E-016,-1.0));
#279=DIRECTION('',(-1.23259516440783E-032,1.0,1.22464679914735E-016));
#280=SURFACE_STYLE_FILL_AREA(#301);
#281=ORIENTED_EDGE('',*,*,#41,.F.);
#282=ORIENTED_EDGE('',*,*,#72,.T.);
#283=CARTESIAN_POINT('',(6.12323399573676E-017,4.49999999999998,-0.999999999999999));
#284=DIRECTION('',(6.12323399573677E-017,1.22464679914735E-016,-1.0));
#285=DIRECTION('',(-1.23259516440783E-032,1.0,1.22464679914735E-016));
#286=CARTESIAN_POINT('',(6.12323399573677E-017,-6.97753532008527E-015,-1.0));
#287=DIRECTION('',(6.12323399573677E-017,1.22464679914735E-016,-1.0));
#288=DIRECTION('',(-1.23259516440783E-032,1.0,1.22464679914735E-016));
#289=SURFACE_STYLE_FILL_AREA(#302);
#290=ORIENTED_EDGE('',*,*,#56,.F.);
#291=ORIENTED_EDGE('',*,*,#46,.T.);
#292=CARTESIAN_POINT('',(-1.50019232895551E-015,4.24999999999997,24.5));
#293=DIRECTION('',(-6.12323399573677E-017,-1.22464679914735E-016,1.0));
#294=DIRECTION('',(1.23259516440783E-032,-1.0,-1.22464679914735E-016));
#295=FILL_AREA_STYLE('',(#303));
#296=FILL_AREA_STYLE('',(#304));
#297=FILL_AREA_STYLE('',(#305));
#298=FILL_AREA_STYLE('',(#306));
#299=FILL_AREA_STYLE('',(#307));
#300=FILL_AREA_STYLE('',(#308));
#301=FILL_AREA_STYLE('',(#309));
#302=FILL_AREA_STYLE('',(#310));
#303=FILL_AREA_STYLE_COLOUR('',#311);
#304=FILL_AREA_STYLE_COLOUR('',#312);
#305=FILL_AREA_STYLE_COLOUR('',#313);
#306=FILL_AREA_STYLE_COLOUR('',#314);
#307=FILL_AREA_STYLE_COLOUR('',#315);
#308=FILL_AREA_STYLE_COLOUR('',#316);
#309=FILL_AREA_STYLE_COLOUR('',#317);
#310=FILL_AREA_STYLE_COLOUR('',#318);
#311=COLOUR_RGB('',0.501960813999176,0.501960813999176,0.501960813999176);
#312=COLOUR_RGB('',0.501960813999176,0.501960813999176,0.501960813999176);
#313=COLOUR_RGB('',0.501960813999176,0.501960813999176,0.501960813999176);
#314=COLOUR_RGB('',0.501960813999176,0.501960813999176,0.501960813999176);
#315=COLOUR_RGB('',0.501960813999176,0.501960813999176,0.501960813999176);
#316=COLOUR_RGB('',0.501960813999176,0.501960813999176,0.501960813999176);
#317=COLOUR_RGB('',0.501960813999176,0.501960813999176,0.501960813999176);
#318=COLOUR_RGB('',0.501960813999176,0.501960813999176,0.501960813999176);
ENDSEC;
END-ISO-10303-21;
