ISO-10303-21;
HEADER;
FILE_DESCRIPTION((''),'1');
FILE_NAME('T:/00_BIG-HP\X2\FF71FF6FFF8CFF9F\X0\/\X2\670065B0\X0\2025_HP\X2\FF71FF6FFF8CFF9F4E885B9AFF83FF9EFF70FF80\X0\/01_DXF\X2\FF83FF9EFF70FF80\X0\/LINK\X2\7528FF83FF9EFF70FF80\X0\/CK\X2\FF8DFF6FFF84FF9E30FBFF71FF78FF7EFF7BFF98\X0\/10_\X2\4ED54E0A305275284E38FF8AFF9EFF72FF84FF7CFF98FF70FF7DFF9E\X0\/09_\X2\4E38FF8AFF9EFF72FF847528FF7DFF84FF9AFF70FF84FF7AFF9AFF6FFF84\X0\/EC1005.stp','2024-09-09T06:42:16',(''),(''),'Spatial Interop R21 SP3','Kubotek KeyCreator 2011 V10.0.2 (22737)',' ');
FILE_SCHEMA(('automotive_design'));
ENDSEC;
DATA;
#1=MECHANICAL_DESIGN_GEOMETRIC_PRESENTATION_REPRESENTATION(' ',(#10,#11,#12,#13,#14,#15,#16,#17,#18,#19,#20,#21,#22,#23,#24),#6);
#2=PRODUCT_DEFINITION_CONTEXT('',#25,'design');
#3=APPLICATION_PROTOCOL_DEFINITION('INTERNATIONAL STANDARD','automotive_design',1994,#25);
#4=PRODUCT_CATEGORY_RELATIONSHIP('NONE','NONE',#26,#27);
#5=SHAPE_DEFINITION_REPRESENTATION(#28,#29);
#6= (GEOMETRIC_REPRESENTATION_CONTEXT(3)GLOBAL_UNCERTAINTY_ASSIGNED_CONTEXT((#32))GLOBAL_UNIT_ASSIGNED_CONTEXT((#34,#35,#36))REPRESENTATION_CONTEXT('NONE','WORKSPACE'));
#10=STYLED_ITEM('',(#38,#39),#40);
#11=STYLED_ITEM('',(#41,#42),#43);
#12=STYLED_ITEM('',(#44,#45),#46);
#13=STYLED_ITEM('',(#47),#48);
#14=STYLED_ITEM('',(#49,#50),#51);
#15=STYLED_ITEM('',(#52),#53);
#16=STYLED_ITEM('',(#54),#55);
#17=STYLED_ITEM('',(#56),#57);
#18=STYLED_ITEM('',(#58),#59);
#19=STYLED_ITEM('',(#60),#61);
#20=STYLED_ITEM('',(#62,#63),#64);
#21=STYLED_ITEM('',(#65,#66),#67);
#22=STYLED_ITEM('',(#68,#69),#70);
#23=STYLED_ITEM('',(#71),#72);
#24=STYLED_ITEM('',(#73,#74),#75);
#25=APPLICATION_CONTEXT(' ');
#26=PRODUCT_CATEGORY('part','NONE');
#27=PRODUCT_RELATED_PRODUCT_CATEGORY('detail',' ',(#76));
#28=PRODUCT_DEFINITION_SHAPE('NONE','NONE',#77);
#29=ADVANCED_BREP_SHAPE_REPRESENTATION('240[2]',(#67,#78),#6);
#32=UNCERTAINTY_MEASURE_WITH_UNIT(LENGTH_MEASURE(1.0E-006),#34,'','');
#34= (CONVERSION_BASED_UNIT('MILLIMETRE',#81)LENGTH_UNIT()NAMED_UNIT(#84));
#35= (NAMED_UNIT(#86)PLANE_ANGLE_UNIT()SI_UNIT($,.RADIAN.));
#36= (NAMED_UNIT(#86)SOLID_ANGLE_UNIT()SI_UNIT($,.STERADIAN.));
#38=PRESENTATION_STYLE_ASSIGNMENT((#92));
#39=PRESENTATION_STYLE_ASSIGNMENT((#93));
#40=ADVANCED_FACE('240[2]',(#94,#95),#96,.T.);
#41=PRESENTATION_STYLE_ASSIGNMENT((#97));
#42=PRESENTATION_STYLE_ASSIGNMENT((#98));
#43=ADVANCED_FACE('240[2]',(#99,#100),#101,.T.);
#44=PRESENTATION_STYLE_ASSIGNMENT((#102));
#45=PRESENTATION_STYLE_ASSIGNMENT((#103));
#46=ADVANCED_FACE('240[2]',(#104,#105),#106,.T.);
#47=PRESENTATION_STYLE_ASSIGNMENT((#107));
#48=EDGE_CURVE('240[2]',#108,#108,#109,.T.);
#49=PRESENTATION_STYLE_ASSIGNMENT((#110));
#50=PRESENTATION_STYLE_ASSIGNMENT((#111));
#51=ADVANCED_FACE('240[2]',(#112,#113),#114,.F.);
#52=PRESENTATION_STYLE_ASSIGNMENT((#115));
#53=EDGE_CURVE('240[2]',#116,#116,#117,.T.);
#54=PRESENTATION_STYLE_ASSIGNMENT((#118));
#55=EDGE_CURVE('240[2]',#119,#119,#120,.T.);
#56=PRESENTATION_STYLE_ASSIGNMENT((#121));
#57=EDGE_CURVE('240[2]',#122,#122,#123,.T.);
#58=PRESENTATION_STYLE_ASSIGNMENT((#124));
#59=EDGE_CURVE('240[2]',#125,#125,#126,.T.);
#60=PRESENTATION_STYLE_ASSIGNMENT((#127));
#61=EDGE_CURVE('240[2]',#128,#128,#129,.T.);
#62=PRESENTATION_STYLE_ASSIGNMENT((#130));
#63=PRESENTATION_STYLE_ASSIGNMENT((#131));
#64=ADVANCED_FACE('240[2]',(#132,#133),#134,.T.);
#65=PRESENTATION_STYLE_ASSIGNMENT((#135));
#66=PRESENTATION_STYLE_ASSIGNMENT((#136));
#67=MANIFOLD_SOLID_BREP('240[2]',#137);
#68=PRESENTATION_STYLE_ASSIGNMENT((#138));
#69=PRESENTATION_STYLE_ASSIGNMENT((#139));
#70=ADVANCED_FACE('240[2]',(#140,#141),#142,.T.);
#71=PRESENTATION_STYLE_ASSIGNMENT((#143));
#72=EDGE_CURVE('240[2]',#144,#144,#145,.T.);
#73=PRESENTATION_STYLE_ASSIGNMENT((#146));
#74=PRESENTATION_STYLE_ASSIGNMENT((#147));
#75=ADVANCED_FACE('240[2]',(#148,#149),#150,.T.);
#76=PRODUCT('240[2]','240[2]','PART-240[2]-DESC',(#151));
#77=PRODUCT_DEFINITION('NONE','NONE',#152,#2);
#78=AXIS2_PLACEMENT_3D('',#153,#154,#155);
#81=LENGTH_MEASURE_WITH_UNIT(LENGTH_MEASURE(1.0),#156);
#84=DIMENSIONAL_EXPONENTS(1.0,0.0,0.0,0.0,0.0,0.0,0.0);
#86=DIMENSIONAL_EXPONENTS(0.0,0.0,0.0,0.0,0.0,0.0,0.0);
#92=SURFACE_STYLE_USAGE(.BOTH.,#157);
#93=CURVE_STYLE('',#158,POSITIVE_LENGTH_MEASURE(1000.0),#159);
#94=FACE_BOUND('',#160,.T.);
#95=FACE_BOUND('',#161,.T.);
#96=CYLINDRICAL_SURFACE('',#162,5.49999999999997);
#97=SURFACE_STYLE_USAGE(.BOTH.,#163);
#98=CURVE_STYLE('',#164,POSITIVE_LENGTH_MEASURE(1000.0),#165);
#99=FACE_OUTER_BOUND('',#166,.T.);
#100=FACE_BOUND('',#167,.T.);
#101=PLANE('',#168);
#102=SURFACE_STYLE_USAGE(.BOTH.,#169);
#103=CURVE_STYLE('',#170,POSITIVE_LENGTH_MEASURE(1000.0),#171);
#104=FACE_BOUND('',#172,.T.);
#105=FACE_BOUND('',#173,.T.);
#106=CYLINDRICAL_SURFACE('',#174,4.99999999999996);
#107=CURVE_STYLE('',#175,POSITIVE_LENGTH_MEASURE(1000.0),#176);
#108=VERTEX_POINT('',#177);
#109=CIRCLE('',#178,4.99999999999995);
#110=SURFACE_STYLE_USAGE(.BOTH.,#179);
#111=CURVE_STYLE('',#180,POSITIVE_LENGTH_MEASURE(1000.0),#181);
#112=FACE_BOUND('',#182,.T.);
#113=FACE_BOUND('',#183,.T.);
#114=CYLINDRICAL_SURFACE('',#184,2.5);
#115=CURVE_STYLE('',#185,POSITIVE_LENGTH_MEASURE(1000.0),#186);
#116=VERTEX_POINT('',#187);
#117=CIRCLE('',#188,4.99999999999997);
#118=CURVE_STYLE('',#189,POSITIVE_LENGTH_MEASURE(1000.0),#190);
#119=VERTEX_POINT('',#191);
#120=CIRCLE('',#192,2.5);
#121=CURVE_STYLE('',#193,POSITIVE_LENGTH_MEASURE(1000.0),#194);
#122=VERTEX_POINT('',#195);
#123=CIRCLE('',#196,4.99999999999995);
#124=CURVE_STYLE('',#197,POSITIVE_LENGTH_MEASURE(1000.0),#198);
#125=VERTEX_POINT('',#199);
#126=CIRCLE('',#200,5.49999999999997);
#127=CURVE_STYLE('',#201,POSITIVE_LENGTH_MEASURE(1000.0),#202);
#128=VERTEX_POINT('',#203);
#129=CIRCLE('',#204,5.49999999999997);
#130=SURFACE_STYLE_USAGE(.BOTH.,#205);
#131=CURVE_STYLE('',#206,POSITIVE_LENGTH_MEASURE(1000.0),#207);
#132=FACE_OUTER_BOUND('',#208,.T.);
#133=FACE_BOUND('',#209,.T.);
#134=PLANE('',#210);
#135=SURFACE_STYLE_USAGE(.BOTH.,#211);
#136=CURVE_STYLE('',#212,POSITIVE_LENGTH_MEASURE(1000.0),#213);
#137=CLOSED_SHELL('',(#43,#46,#75,#64,#40,#70,#51));
#138=SURFACE_STYLE_USAGE(.BOTH.,#214);
#139=CURVE_STYLE('',#215,POSITIVE_LENGTH_MEASURE(1000.0),#216);
#140=FACE_BOUND('',#217,.T.);
#141=FACE_OUTER_BOUND('',#218,.T.);
#142=PLANE('',#219);
#143=CURVE_STYLE('',#220,POSITIVE_LENGTH_MEASURE(1000.0),#221);
#144=VERTEX_POINT('',#222);
#145=CIRCLE('',#223,2.5);
#146=SURFACE_STYLE_USAGE(.BOTH.,#224);
#147=CURVE_STYLE('',#225,POSITIVE_LENGTH_MEASURE(1000.0),#226);
#148=FACE_BOUND('',#227,.T.);
#149=FACE_BOUND('',#228,.T.);
#150=TOROIDAL_SURFACE('',#229,4.68749999999982,0.812500000000128);
#151=PRODUCT_CONTEXT('',#25,'mechanical');
#152=PRODUCT_DEFINITION_FORMATION_WITH_SPECIFIED_SOURCE(' ','NONE',#76,.NOT_KNOWN.);
#153=CARTESIAN_POINT('',(0.0,0.0,0.0));
#154=DIRECTION('',(0.0,0.0,1.0));
#155=DIRECTION('',(1.0,0.0,0.0));
#156= (NAMED_UNIT(#84)LENGTH_UNIT()SI_UNIT(.MILLI.,.METRE.));
#157=SURFACE_SIDE_STYLE('',(#231));
#158=DRAUGHTING_PRE_DEFINED_CURVE_FONT('continuous');
#159=COLOUR_RGB('',0.501960813999176,0.501960813999176,0.501960813999176);
#160=EDGE_LOOP('',(#232));
#161=EDGE_LOOP('',(#233));
#162=AXIS2_PLACEMENT_3D('',#234,#235,#236);
#163=SURFACE_SIDE_STYLE('',(#237));
#164=DRAUGHTING_PRE_DEFINED_CURVE_FONT('continuous');
#165=COLOUR_RGB('',0.501960813999176,0.501960813999176,0.501960813999176);
#166=EDGE_LOOP('',(#238));
#167=EDGE_LOOP('',(#239));
#168=AXIS2_PLACEMENT_3D('',#240,#241,#242);
#169=SURFACE_SIDE_STYLE('',(#243));
#170=DRAUGHTING_PRE_DEFINED_CURVE_FONT('continuous');
#171=COLOUR_RGB('',0.501960813999176,0.501960813999176,0.501960813999176);
#172=EDGE_LOOP('',(#244));
#173=EDGE_LOOP('',(#245));
#174=AXIS2_PLACEMENT_3D('',#246,#247,#248);
#175=DRAUGHTING_PRE_DEFINED_CURVE_FONT('continuous');
#176=COLOUR_RGB('',0.501960813999176,0.501960813999176,0.501960813999176);
#177=CARTESIAN_POINT('',(-6.16297582203909E-032,4.99999999999995,6.1232339957367E-016));
#178=AXIS2_PLACEMENT_3D('',#249,#250,#251);
#179=SURFACE_SIDE_STYLE('',(#252));
#180=DRAUGHTING_PRE_DEFINED_CURVE_FONT('continuous');
#181=COLOUR_RGB('',0.501960813999176,0.501960813999176,0.501960813999176);
#182=EDGE_LOOP('',(#253));
#183=EDGE_LOOP('',(#254));
#184=AXIS2_PLACEMENT_3D('',#255,#256,#257);
#185=DRAUGHTING_PRE_DEFINED_CURVE_FONT('continuous');
#186=COLOUR_RGB('',0.501960813999176,0.501960813999176,0.501960813999176);
#187=CARTESIAN_POINT('',(-1.50019232895551E-015,4.99999999999996,24.5));
#188=AXIS2_PLACEMENT_3D('',#258,#259,#260);
#189=DRAUGHTING_PRE_DEFINED_CURVE_FONT('continuous');
#190=COLOUR_RGB('',0.501960813999176,0.501960813999176,0.501960813999176);
#191=CARTESIAN_POINT('',(6.12323399573676E-017,2.49999999999999,-1.0));
#192=AXIS2_PLACEMENT_3D('',#261,#262,#263);
#193=DRAUGHTING_PRE_DEFINED_CURVE_FONT('continuous');
#194=COLOUR_RGB('',0.501960813999176,0.501960813999176,0.501960813999176);
#195=CARTESIAN_POINT('',(-9.1848509936062E-017,4.99999999999994,1.50000000000017));
#196=AXIS2_PLACEMENT_3D('',#264,#265,#266);
#197=DRAUGHTING_PRE_DEFINED_CURVE_FONT('continuous');
#198=COLOUR_RGB('',0.501960813999176,0.501960813999176,0.501960813999176);
#199=CARTESIAN_POINT('',(-6.77927340424302E-032,5.49999999999996,6.73555739531039E-016));
#200=AXIS2_PLACEMENT_3D('',#267,#268,#269);
#201=DRAUGHTING_PRE_DEFINED_CURVE_FONT('continuous');
#202=COLOUR_RGB('',0.501960813999176,0.501960813999176,0.501960813999176);
#203=CARTESIAN_POINT('',(6.12323399573676E-017,5.49999999999996,-0.999999999999999));
#204=AXIS2_PLACEMENT_3D('',#270,#271,#272);
#205=SURFACE_SIDE_STYLE('',(#273));
#206=DRAUGHTING_PRE_DEFINED_CURVE_FONT('continuous');
#207=COLOUR_RGB('',0.501960813999176,0.501960813999176,0.501960813999176);
#208=EDGE_LOOP('',(#274));
#209=EDGE_LOOP('',(#275));
#210=AXIS2_PLACEMENT_3D('',#276,#277,#278);
#211=SURFACE_SIDE_STYLE('',(#279));
#212=DRAUGHTING_PRE_DEFINED_CURVE_FONT('continuous');
#213=COLOUR_RGB('',0.501960813999176,0.501960813999176,0.501960813999176);
#214=SURFACE_SIDE_STYLE('',(#280));
#215=DRAUGHTING_PRE_DEFINED_CURVE_FONT('continuous');
#216=COLOUR_RGB('',0.501960813999176,0.501960813999176,0.501960813999176);
#217=EDGE_LOOP('',(#281));
#218=EDGE_LOOP('',(#282));
#219=AXIS2_PLACEMENT_3D('',#283,#284,#285);
#220=DRAUGHTING_PRE_DEFINED_CURVE_FONT('continuous');
#221=COLOUR_RGB('',0.501960813999176,0.501960813999176,0.501960813999176);
#222=CARTESIAN_POINT('',(-1.50019232895551E-015,2.49999999999999,24.5));
#223=AXIS2_PLACEMENT_3D('',#286,#287,#288);
#224=SURFACE_SIDE_STYLE('',(#289));
#225=DRAUGHTING_PRE_DEFINED_CURVE_FONT('continuous');
#226=COLOUR_RGB('',0.501960813999176,0.501960813999176,0.501960813999176);
#227=EDGE_LOOP('',(#290));
#228=EDGE_LOOP('',(#291));
#229=AXIS2_PLACEMENT_3D('',#292,#293,#294);
#231=SURFACE_STYLE_FILL_AREA(#295);
#232=ORIENTED_EDGE('',*,*,#61,.F.);
#233=ORIENTED_EDGE('',*,*,#59,.T.);
#234=CARTESIAN_POINT('',(3.06161699786838E-017,-7.03876766004263E-015,-0.5));
#235=DIRECTION('',(6.12323399573677E-017,1.22464679914735E-016,-1.0));
#236=DIRECTION('',(-1.23259516440783E-032,1.0,1.22464679914735E-016));
#237=SURFACE_STYLE_FILL_AREA(#296);
#238=ORIENTED_EDGE('',*,*,#53,.F.);
#239=ORIENTED_EDGE('',*,*,#72,.T.);
#240=CARTESIAN_POINT('',(-1.50019232895551E-015,3.74999999999997,24.5));
#241=DIRECTION('',(-6.12323399573677E-017,-1.22464679914735E-016,1.0));
#242=DIRECTION('',(1.23259516440783E-032,-1.0,-1.22464679914735E-016));
#243=SURFACE_STYLE_FILL_AREA(#297);
#244=ORIENTED_EDGE('',*,*,#57,.F.);
#245=ORIENTED_EDGE('',*,*,#53,.T.);
#246=CARTESIAN_POINT('',(-7.96020419445784E-016,-8.69204083889157E-015,13.0000000000001));
#247=DIRECTION('',(6.12323399573677E-017,1.22464679914735E-016,-1.0));
#248=DIRECTION('',(-1.23259516440783E-032,1.0,1.22464679914735E-016));
#249=CARTESIAN_POINT('',(8.7514256672956E-047,-7.1E-015,-8.69499227394621E-031));
#250=DIRECTION('',(6.12323399573677E-017,1.22464679914735E-016,-1.0));
#251=DIRECTION('',(-1.23259516440783E-032,1.0,1.22464679914735E-016));
#252=SURFACE_STYLE_FILL_AREA(#298);
#253=ORIENTED_EDGE('',*,*,#72,.F.);
#254=ORIENTED_EDGE('',*,*,#55,.T.);
#255=CARTESIAN_POINT('',(-7.1947999449907E-016,-8.53895998899814E-015,11.75));
#256=DIRECTION('',(6.12323399573677E-017,1.22464679914735E-016,-1.0));
#257=DIRECTION('',(-1.23259516440783E-032,1.0,1.22464679914735E-016));
#258=CARTESIAN_POINT('',(-1.50019232895551E-015,-1.0100384657911E-014,24.5));
#259=DIRECTION('',(6.12323399573676E-017,1.22464679914735E-016,-1.0));
#260=DIRECTION('',(-1.23259516440783E-032,1.0,1.22464679914735E-016));
#261=CARTESIAN_POINT('',(6.12323399573677E-017,-6.97753532008527E-015,-1.0));
#262=DIRECTION('',(6.12323399573677E-017,1.22464679914735E-016,-1.0));
#263=DIRECTION('',(-1.23259516440783E-032,1.0,1.22464679914735E-016));
#264=CARTESIAN_POINT('',(-9.18485099360619E-017,-7.28369701987212E-015,1.50000000000017));
#265=DIRECTION('',(6.12323399573677E-017,1.22464679914735E-016,-1.0));
#266=DIRECTION('',(-1.23259516440783E-032,1.0,1.22464679914735E-016));
#267=CARTESIAN_POINT('',(8.7514256672956E-047,-7.1E-015,-8.69499227394621E-031));
#268=DIRECTION('',(6.12323399573677E-017,1.22464679914735E-016,-1.0));
#269=DIRECTION('',(-1.23259516440783E-032,1.0,1.22464679914735E-016));
#270=CARTESIAN_POINT('',(6.12323399573677E-017,-6.97753532008527E-015,-1.0));
#271=DIRECTION('',(6.12323399573677E-017,1.22464679914735E-016,-1.0));
#272=DIRECTION('',(-1.23259516440783E-032,1.0,1.22464679914735E-016));
#273=SURFACE_STYLE_FILL_AREA(#299);
#274=ORIENTED_EDGE('',*,*,#59,.F.);
#275=ORIENTED_EDGE('',*,*,#48,.T.);
#276=CARTESIAN_POINT('',(-6.47112461314106E-032,5.24999999999995,6.42939569552355E-016));
#277=DIRECTION('',(-6.12323399573677E-017,-1.22464679914735E-016,1.0));
#278=DIRECTION('',(1.23259516440783E-032,-1.0,-1.22464679914735E-016));
#279=SURFACE_STYLE_FILL_AREA(#300);
#280=SURFACE_STYLE_FILL_AREA(#301);
#281=ORIENTED_EDGE('',*,*,#55,.F.);
#282=ORIENTED_EDGE('',*,*,#61,.T.);
#283=CARTESIAN_POINT('',(6.12323399573676E-017,3.99999999999998,-1.0));
#284=DIRECTION('',(6.12323399573677E-017,1.22464679914735E-016,-1.0));
#285=DIRECTION('',(-1.23259516440783E-032,1.0,1.22464679914735E-016));
#286=CARTESIAN_POINT('',(-1.50019232895551E-015,-1.0100384657911E-014,24.5));
#287=DIRECTION('',(6.12323399573677E-017,1.22464679914735E-016,-1.0));
#288=DIRECTION('',(-1.23259516440783E-032,1.0,1.22464679914735E-016));
#289=SURFACE_STYLE_FILL_AREA(#302);
#290=ORIENTED_EDGE('',*,*,#48,.F.);
#291=ORIENTED_EDGE('',*,*,#57,.T.);
#292=CARTESIAN_POINT('',(-4.59242549680309E-017,-7.19727586753706E-015,0.750000000000085));
#293=DIRECTION('',(6.12323399573677E-017,1.22464679914735E-016,-1.0));
#294=DIRECTION('',(-1.0,-4.82715273076902E-033,-6.12323399573677E-017));
#295=FILL_AREA_STYLE('',(#303));
#296=FILL_AREA_STYLE('',(#304));
#297=FILL_AREA_STYLE('',(#305));
#298=FILL_AREA_STYLE('',(#306));
#299=FILL_AREA_STYLE('',(#307));
#300=FILL_AREA_STYLE('',(#308));
#301=FILL_AREA_STYLE('',(#309));
#302=FILL_AREA_STYLE('',(#310));
#303=FILL_AREA_STYLE_COLOUR('',#311);
#304=FILL_AREA_STYLE_COLOUR('',#312);
#305=FILL_AREA_STYLE_COLOUR('',#313);
#306=FILL_AREA_STYLE_COLOUR('',#314);
#307=FILL_AREA_STYLE_COLOUR('',#315);
#308=FILL_AREA_STYLE_COLOUR('',#316);
#309=FILL_AREA_STYLE_COLOUR('',#317);
#310=FILL_AREA_STYLE_COLOUR('',#318);
#311=COLOUR_RGB('',0.501960813999176,0.501960813999176,0.501960813999176);
#312=COLOUR_RGB('',0.501960813999176,0.501960813999176,0.501960813999176);
#313=COLOUR_RGB('',0.501960813999176,0.501960813999176,0.501960813999176);
#314=COLOUR_RGB('',0.501960813999176,0.501960813999176,0.501960813999176);
#315=COLOUR_RGB('',0.501960813999176,0.501960813999176,0.501960813999176);
#316=COLOUR_RGB('',0.501960813999176,0.501960813999176,0.501960813999176);
#317=COLOUR_RGB('',0.501960813999176,0.501960813999176,0.501960813999176);
#318=COLOUR_RGB('',0.501960813999176,0.501960813999176,0.501960813999176);
ENDSEC;
END-ISO-10303-21;
