ISO-10303-21;
HEADER;
FILE_DESCRIPTION((''),'1');
FILE_NAME('T:/00_BIG-HP\X2\FF71FF6FFF8CFF9F\X0\/\X2\670065B0\X0\2025_HP\X2\FF71FF6FFF8CFF9F4E885B9AFF83FF9EFF70FF80\X0\/01_DXF\X2\FF83FF9EFF70FF80\X0\/LINK\X2\7528FF83FF9EFF70FF80\X0\/CK\X2\FF8DFF6FFF84FF9E30FBFF71FF78FF7EFF7BFF98\X0\/10_\X2\4ED54E0A305275284E38FF8AFF9EFF72FF84FF7CFF98FF70FF7DFF9E\X0\/09_\X2\4E38FF8AFF9EFF72FF847528FF7DFF84FF9AFF70FF84FF7AFF9AFF6FFF84\X0\/EC1004.stp','2024-09-09T06:36:10',(''),(''),'Spatial Interop R21 SP3','Kubotek KeyCreator 2011 V10.0.2 (22737)',' ');
FILE_SCHEMA(('automotive_design'));
ENDSEC;
DATA;
#1=MECHANICAL_DESIGN_GEOMETRIC_PRESENTATION_REPRESENTATION(' ',(#10,#11,#12,#13,#14,#15,#16,#17,#18,#19,#20,#21,#22,#23,#24),#6);
#2=PRODUCT_DEFINITION_CONTEXT('',#25,'design');
#3=APPLICATION_PROTOCOL_DEFINITION('INTERNATIONAL STANDARD','automotive_design',1994,#25);
#4=PRODUCT_CATEGORY_RELATIONSHIP('NONE','NONE',#26,#27);
#5=SHAPE_DEFINITION_REPRESENTATION(#28,#29);
#6= (GEOMETRIC_REPRESENTATION_CONTEXT(3)GLOBAL_UNCERTAINTY_ASSIGNED_CONTEXT((#32))GLOBAL_UNIT_ASSIGNED_CONTEXT((#34,#35,#36))REPRESENTATION_CONTEXT('NONE','WORKSPACE'));
#10=STYLED_ITEM('',(#38,#39),#40);
#11=STYLED_ITEM('',(#41),#42);
#12=STYLED_ITEM('',(#43,#44),#45);
#13=STYLED_ITEM('',(#46),#47);
#14=STYLED_ITEM('',(#48),#49);
#15=STYLED_ITEM('',(#50,#51),#52);
#16=STYLED_ITEM('',(#53,#54),#55);
#17=STYLED_ITEM('',(#56,#57),#58);
#18=STYLED_ITEM('',(#59),#60);
#19=STYLED_ITEM('',(#61),#62);
#20=STYLED_ITEM('',(#63),#64);
#21=STYLED_ITEM('',(#65,#66),#67);
#22=STYLED_ITEM('',(#68,#69),#70);
#23=STYLED_ITEM('',(#71,#72),#73);
#24=STYLED_ITEM('',(#74),#75);
#25=APPLICATION_CONTEXT(' ');
#26=PRODUCT_CATEGORY('part','NONE');
#27=PRODUCT_RELATED_PRODUCT_CATEGORY('detail',' ',(#76));
#28=PRODUCT_DEFINITION_SHAPE('NONE','NONE',#77);
#29=ADVANCED_BREP_SHAPE_REPRESENTATION('240[2]',(#40,#78),#6);
#32=UNCERTAINTY_MEASURE_WITH_UNIT(LENGTH_MEASURE(1.0E-006),#34,'','');
#34= (CONVERSION_BASED_UNIT('MILLIMETRE',#81)LENGTH_UNIT()NAMED_UNIT(#84));
#35= (NAMED_UNIT(#86)PLANE_ANGLE_UNIT()SI_UNIT($,.RADIAN.));
#36= (NAMED_UNIT(#86)SOLID_ANGLE_UNIT()SI_UNIT($,.STERADIAN.));
#38=PRESENTATION_STYLE_ASSIGNMENT((#92));
#39=PRESENTATION_STYLE_ASSIGNMENT((#93));
#40=MANIFOLD_SOLID_BREP('240[2]',#94);
#41=PRESENTATION_STYLE_ASSIGNMENT((#95));
#42=EDGE_CURVE('240[2]',#96,#96,#97,.T.);
#43=PRESENTATION_STYLE_ASSIGNMENT((#98));
#44=PRESENTATION_STYLE_ASSIGNMENT((#99));
#45=ADVANCED_FACE('240[2]',(#100,#101),#102,.T.);
#46=PRESENTATION_STYLE_ASSIGNMENT((#103));
#47=EDGE_CURVE('240[2]',#104,#104,#105,.T.);
#48=PRESENTATION_STYLE_ASSIGNMENT((#106));
#49=EDGE_CURVE('240[2]',#107,#107,#108,.T.);
#50=PRESENTATION_STYLE_ASSIGNMENT((#109));
#51=PRESENTATION_STYLE_ASSIGNMENT((#110));
#52=ADVANCED_FACE('240[2]',(#111,#112),#113,.T.);
#53=PRESENTATION_STYLE_ASSIGNMENT((#114));
#54=PRESENTATION_STYLE_ASSIGNMENT((#115));
#55=ADVANCED_FACE('240[2]',(#116,#117),#118,.T.);
#56=PRESENTATION_STYLE_ASSIGNMENT((#119));
#57=PRESENTATION_STYLE_ASSIGNMENT((#120));
#58=ADVANCED_FACE('240[2]',(#121,#122),#123,.T.);
#59=PRESENTATION_STYLE_ASSIGNMENT((#124));
#60=EDGE_CURVE('240[2]',#125,#125,#126,.T.);
#61=PRESENTATION_STYLE_ASSIGNMENT((#127));
#62=EDGE_CURVE('240[2]',#128,#128,#129,.T.);
#63=PRESENTATION_STYLE_ASSIGNMENT((#130));
#64=EDGE_CURVE('240[2]',#131,#131,#132,.T.);
#65=PRESENTATION_STYLE_ASSIGNMENT((#133));
#66=PRESENTATION_STYLE_ASSIGNMENT((#134));
#67=ADVANCED_FACE('240[2]',(#135,#136),#137,.T.);
#68=PRESENTATION_STYLE_ASSIGNMENT((#138));
#69=PRESENTATION_STYLE_ASSIGNMENT((#139));
#70=ADVANCED_FACE('240[2]',(#140,#141),#142,.F.);
#71=PRESENTATION_STYLE_ASSIGNMENT((#143));
#72=PRESENTATION_STYLE_ASSIGNMENT((#144));
#73=ADVANCED_FACE('240[2]',(#145,#146),#147,.T.);
#74=PRESENTATION_STYLE_ASSIGNMENT((#148));
#75=EDGE_CURVE('240[2]',#149,#149,#150,.T.);
#76=PRODUCT('240[2]','240[2]','PART-240[2]-DESC',(#151));
#77=PRODUCT_DEFINITION('NONE','NONE',#152,#2);
#78=AXIS2_PLACEMENT_3D('',#153,#154,#155);
#81=LENGTH_MEASURE_WITH_UNIT(LENGTH_MEASURE(1.0),#156);
#84=DIMENSIONAL_EXPONENTS(1.0,0.0,0.0,0.0,0.0,0.0,0.0);
#86=DIMENSIONAL_EXPONENTS(0.0,0.0,0.0,0.0,0.0,0.0,0.0);
#92=SURFACE_STYLE_USAGE(.BOTH.,#157);
#93=CURVE_STYLE('',#158,POSITIVE_LENGTH_MEASURE(1000.0),#159);
#94=CLOSED_SHELL('',(#45,#73,#52,#55,#58,#67,#70));
#95=CURVE_STYLE('',#160,POSITIVE_LENGTH_MEASURE(1000.0),#161);
#96=VERTEX_POINT('',#162);
#97=CIRCLE('',#163,2.0);
#98=SURFACE_STYLE_USAGE(.BOTH.,#164);
#99=CURVE_STYLE('',#165,POSITIVE_LENGTH_MEASURE(1000.0),#166);
#100=FACE_OUTER_BOUND('',#167,.T.);
#101=FACE_BOUND('',#168,.T.);
#102=PLANE('',#169);
#103=CURVE_STYLE('',#170,POSITIVE_LENGTH_MEASURE(1000.0),#171);
#104=VERTEX_POINT('',#172);
#105=CIRCLE('',#173,4.99999999999995);
#106=CURVE_STYLE('',#174,POSITIVE_LENGTH_MEASURE(1000.0),#175);
#107=VERTEX_POINT('',#176);
#108=CIRCLE('',#177,5.49999999999997);
#109=SURFACE_STYLE_USAGE(.BOTH.,#178);
#110=CURVE_STYLE('',#179,POSITIVE_LENGTH_MEASURE(1000.0),#180);
#111=FACE_BOUND('',#181,.T.);
#112=FACE_BOUND('',#182,.T.);
#113=TOROIDAL_SURFACE('',#183,4.68749999999982,0.812500000000128);
#114=SURFACE_STYLE_USAGE(.BOTH.,#184);
#115=CURVE_STYLE('',#185,POSITIVE_LENGTH_MEASURE(1000.0),#186);
#116=FACE_OUTER_BOUND('',#187,.T.);
#117=FACE_BOUND('',#188,.T.);
#118=PLANE('',#189);
#119=SURFACE_STYLE_USAGE(.BOTH.,#190);
#120=CURVE_STYLE('',#191,POSITIVE_LENGTH_MEASURE(1000.0),#192);
#121=FACE_BOUND('',#193,.T.);
#122=FACE_BOUND('',#194,.T.);
#123=CYLINDRICAL_SURFACE('',#195,5.49999999999997);
#124=CURVE_STYLE('',#196,POSITIVE_LENGTH_MEASURE(1000.0),#197);
#125=VERTEX_POINT('',#198);
#126=CIRCLE('',#199,4.99999999999997);
#127=CURVE_STYLE('',#200,POSITIVE_LENGTH_MEASURE(1000.0),#201);
#128=VERTEX_POINT('',#202);
#129=CIRCLE('',#203,5.49999999999997);
#130=CURVE_STYLE('',#204,POSITIVE_LENGTH_MEASURE(1000.0),#205);
#131=VERTEX_POINT('',#206);
#132=CIRCLE('',#207,2.0);
#133=SURFACE_STYLE_USAGE(.BOTH.,#208);
#134=CURVE_STYLE('',#209,POSITIVE_LENGTH_MEASURE(1000.0),#210);
#135=FACE_BOUND('',#211,.T.);
#136=FACE_OUTER_BOUND('',#212,.T.);
#137=PLANE('',#213);
#138=SURFACE_STYLE_USAGE(.BOTH.,#214);
#139=CURVE_STYLE('',#215,POSITIVE_LENGTH_MEASURE(1000.0),#216);
#140=FACE_BOUND('',#217,.T.);
#141=FACE_BOUND('',#218,.T.);
#142=CYLINDRICAL_SURFACE('',#219,2.0);
#143=SURFACE_STYLE_USAGE(.BOTH.,#220);
#144=CURVE_STYLE('',#221,POSITIVE_LENGTH_MEASURE(1000.0),#222);
#145=FACE_BOUND('',#223,.T.);
#146=FACE_BOUND('',#224,.T.);
#147=CYLINDRICAL_SURFACE('',#225,4.99999999999996);
#148=CURVE_STYLE('',#226,POSITIVE_LENGTH_MEASURE(1000.0),#227);
#149=VERTEX_POINT('',#228);
#150=CIRCLE('',#229,4.99999999999995);
#151=PRODUCT_CONTEXT('',#25,'mechanical');
#152=PRODUCT_DEFINITION_FORMATION_WITH_SPECIFIED_SOURCE(' ','NONE',#76,.NOT_KNOWN.);
#153=CARTESIAN_POINT('',(0.0,0.0,0.0));
#154=DIRECTION('',(0.0,0.0,1.0));
#155=DIRECTION('',(1.0,0.0,0.0));
#156= (NAMED_UNIT(#84)LENGTH_UNIT()SI_UNIT(.MILLI.,.METRE.));
#157=SURFACE_SIDE_STYLE('',(#231));
#158=DRAUGHTING_PRE_DEFINED_CURVE_FONT('continuous');
#159=COLOUR_RGB('',0.501960813999176,0.501960813999176,0.501960813999176);
#160=DRAUGHTING_PRE_DEFINED_CURVE_FONT('continuous');
#161=COLOUR_RGB('',0.501960813999176,0.501960813999176,0.501960813999176);
#162=CARTESIAN_POINT('',(-1.50019232895551E-015,1.99999999999999,24.5));
#163=AXIS2_PLACEMENT_3D('',#232,#233,#234);
#164=SURFACE_SIDE_STYLE('',(#235));
#165=DRAUGHTING_PRE_DEFINED_CURVE_FONT('continuous');
#166=COLOUR_RGB('',0.501960813999176,0.501960813999176,0.501960813999176);
#167=EDGE_LOOP('',(#236));
#168=EDGE_LOOP('',(#237));
#169=AXIS2_PLACEMENT_3D('',#238,#239,#240);
#170=DRAUGHTING_PRE_DEFINED_CURVE_FONT('continuous');
#171=COLOUR_RGB('',0.501960813999176,0.501960813999176,0.501960813999176);
#172=CARTESIAN_POINT('',(-6.16297582203909E-032,4.99999999999995,6.1232339957367E-016));
#173=AXIS2_PLACEMENT_3D('',#241,#242,#243);
#174=DRAUGHTING_PRE_DEFINED_CURVE_FONT('continuous');
#175=COLOUR_RGB('',0.501960813999176,0.501960813999176,0.501960813999176);
#176=CARTESIAN_POINT('',(-6.77927340424302E-032,5.49999999999996,6.73555739531039E-016));
#177=AXIS2_PLACEMENT_3D('',#244,#245,#246);
#178=SURFACE_SIDE_STYLE('',(#247));
#179=DRAUGHTING_PRE_DEFINED_CURVE_FONT('continuous');
#180=COLOUR_RGB('',0.501960813999176,0.501960813999176,0.501960813999176);
#181=EDGE_LOOP('',(#248));
#182=EDGE_LOOP('',(#249));
#183=AXIS2_PLACEMENT_3D('',#250,#251,#252);
#184=SURFACE_SIDE_STYLE('',(#253));
#185=DRAUGHTING_PRE_DEFINED_CURVE_FONT('continuous');
#186=COLOUR_RGB('',0.501960813999176,0.501960813999176,0.501960813999176);
#187=EDGE_LOOP('',(#254));
#188=EDGE_LOOP('',(#255));
#189=AXIS2_PLACEMENT_3D('',#256,#257,#258);
#190=SURFACE_SIDE_STYLE('',(#259));
#191=DRAUGHTING_PRE_DEFINED_CURVE_FONT('continuous');
#192=COLOUR_RGB('',0.501960813999176,0.501960813999176,0.501960813999176);
#193=EDGE_LOOP('',(#260));
#194=EDGE_LOOP('',(#261));
#195=AXIS2_PLACEMENT_3D('',#262,#263,#264);
#196=DRAUGHTING_PRE_DEFINED_CURVE_FONT('continuous');
#197=COLOUR_RGB('',0.501960813999176,0.501960813999176,0.501960813999176);
#198=CARTESIAN_POINT('',(-1.50019232895551E-015,4.99999999999996,24.5));
#199=AXIS2_PLACEMENT_3D('',#265,#266,#267);
#200=DRAUGHTING_PRE_DEFINED_CURVE_FONT('continuous');
#201=COLOUR_RGB('',0.501960813999176,0.501960813999176,0.501960813999176);
#202=CARTESIAN_POINT('',(6.12323399573676E-017,5.49999999999996,-0.999999999999999));
#203=AXIS2_PLACEMENT_3D('',#268,#269,#270);
#204=DRAUGHTING_PRE_DEFINED_CURVE_FONT('continuous');
#205=COLOUR_RGB('',0.501960813999176,0.501960813999176,0.501960813999176);
#206=CARTESIAN_POINT('',(6.12323399573676E-017,1.99999999999999,-1.0));
#207=AXIS2_PLACEMENT_3D('',#271,#272,#273);
#208=SURFACE_SIDE_STYLE('',(#274));
#209=DRAUGHTING_PRE_DEFINED_CURVE_FONT('continuous');
#210=COLOUR_RGB('',0.501960813999176,0.501960813999176,0.501960813999176);
#211=EDGE_LOOP('',(#275));
#212=EDGE_LOOP('',(#276));
#213=AXIS2_PLACEMENT_3D('',#277,#278,#279);
#214=SURFACE_SIDE_STYLE('',(#280));
#215=DRAUGHTING_PRE_DEFINED_CURVE_FONT('continuous');
#216=COLOUR_RGB('',0.501960813999176,0.501960813999176,0.501960813999176);
#217=EDGE_LOOP('',(#281));
#218=EDGE_LOOP('',(#282));
#219=AXIS2_PLACEMENT_3D('',#283,#284,#285);
#220=SURFACE_SIDE_STYLE('',(#286));
#221=DRAUGHTING_PRE_DEFINED_CURVE_FONT('continuous');
#222=COLOUR_RGB('',0.501960813999176,0.501960813999176,0.501960813999176);
#223=EDGE_LOOP('',(#287));
#224=EDGE_LOOP('',(#288));
#225=AXIS2_PLACEMENT_3D('',#289,#290,#291);
#226=DRAUGHTING_PRE_DEFINED_CURVE_FONT('continuous');
#227=COLOUR_RGB('',0.501960813999176,0.501960813999176,0.501960813999176);
#228=CARTESIAN_POINT('',(-9.1848509936062E-017,4.99999999999994,1.50000000000017));
#229=AXIS2_PLACEMENT_3D('',#292,#293,#294);
#231=SURFACE_STYLE_FILL_AREA(#295);
#232=CARTESIAN_POINT('',(-1.50019232895551E-015,-1.0100384657911E-014,24.5));
#233=DIRECTION('',(6.12323399573677E-017,1.22464679914735E-016,-1.0));
#234=DIRECTION('',(-1.23259516440783E-032,1.0,1.22464679914735E-016));
#235=SURFACE_STYLE_FILL_AREA(#296);
#236=ORIENTED_EDGE('',*,*,#60,.F.);
#237=ORIENTED_EDGE('',*,*,#42,.T.);
#238=CARTESIAN_POINT('',(-1.50019232895551E-015,3.49999999999997,24.5));
#239=DIRECTION('',(-6.12323399573677E-017,-1.22464679914735E-016,1.0));
#240=DIRECTION('',(1.23259516440783E-032,-1.0,-1.22464679914735E-016));
#241=CARTESIAN_POINT('',(8.7514256672956E-047,-7.1E-015,-8.69499227394621E-031));
#242=DIRECTION('',(6.12323399573677E-017,1.22464679914735E-016,-1.0));
#243=DIRECTION('',(-1.23259516440783E-032,1.0,1.22464679914735E-016));
#244=CARTESIAN_POINT('',(8.7514256672956E-047,-7.1E-015,-8.69499227394621E-031));
#245=DIRECTION('',(6.12323399573677E-017,1.22464679914735E-016,-1.0));
#246=DIRECTION('',(-1.23259516440783E-032,1.0,1.22464679914735E-016));
#247=SURFACE_STYLE_FILL_AREA(#297);
#248=ORIENTED_EDGE('',*,*,#47,.F.);
#249=ORIENTED_EDGE('',*,*,#75,.T.);
#250=CARTESIAN_POINT('',(-4.59242549680309E-017,-7.19727586753706E-015,0.750000000000085));
#251=DIRECTION('',(6.12323399573677E-017,1.22464679914735E-016,-1.0));
#252=DIRECTION('',(-1.0,-4.82715273076902E-033,-6.12323399573677E-017));
#253=SURFACE_STYLE_FILL_AREA(#298);
#254=ORIENTED_EDGE('',*,*,#49,.F.);
#255=ORIENTED_EDGE('',*,*,#47,.T.);
#256=CARTESIAN_POINT('',(-6.47112461314106E-032,5.24999999999995,6.42939569552355E-016));
#257=DIRECTION('',(-6.12323399573677E-017,-1.22464679914735E-016,1.0));
#258=DIRECTION('',(1.23259516440783E-032,-1.0,-1.22464679914735E-016));
#259=SURFACE_STYLE_FILL_AREA(#299);
#260=ORIENTED_EDGE('',*,*,#62,.F.);
#261=ORIENTED_EDGE('',*,*,#49,.T.);
#262=CARTESIAN_POINT('',(3.06161699786838E-017,-7.03876766004263E-015,-0.5));
#263=DIRECTION('',(6.12323399573677E-017,1.22464679914735E-016,-1.0));
#264=DIRECTION('',(-1.23259516440783E-032,1.0,1.22464679914735E-016));
#265=CARTESIAN_POINT('',(-1.50019232895551E-015,-1.0100384657911E-014,24.5));
#266=DIRECTION('',(6.12323399573676E-017,1.22464679914735E-016,-1.0));
#267=DIRECTION('',(-1.23259516440783E-032,1.0,1.22464679914735E-016));
#268=CARTESIAN_POINT('',(6.12323399573677E-017,-6.97753532008527E-015,-1.0));
#269=DIRECTION('',(6.12323399573677E-017,1.22464679914735E-016,-1.0));
#270=DIRECTION('',(-1.23259516440783E-032,1.0,1.22464679914735E-016));
#271=CARTESIAN_POINT('',(6.12323399573677E-017,-6.97753532008527E-015,-1.0));
#272=DIRECTION('',(6.12323399573677E-017,1.22464679914735E-016,-1.0));
#273=DIRECTION('',(-1.23259516440783E-032,1.0,1.22464679914735E-016));
#274=SURFACE_STYLE_FILL_AREA(#300);
#275=ORIENTED_EDGE('',*,*,#64,.F.);
#276=ORIENTED_EDGE('',*,*,#62,.T.);
#277=CARTESIAN_POINT('',(6.12323399573676E-017,3.74999999999998,-1.0));
#278=DIRECTION('',(6.12323399573677E-017,1.22464679914735E-016,-1.0));
#279=DIRECTION('',(-1.23259516440783E-032,1.0,1.22464679914735E-016));
#280=SURFACE_STYLE_FILL_AREA(#301);
#281=ORIENTED_EDGE('',*,*,#42,.F.);
#282=ORIENTED_EDGE('',*,*,#64,.T.);
#283=CARTESIAN_POINT('',(-7.1947999449907E-016,-8.53895998899814E-015,11.75));
#284=DIRECTION('',(6.12323399573677E-017,1.22464679914735E-016,-1.0));
#285=DIRECTION('',(-1.23259516440783E-032,1.0,1.22464679914735E-016));
#286=SURFACE_STYLE_FILL_AREA(#302);
#287=ORIENTED_EDGE('',*,*,#75,.F.);
#288=ORIENTED_EDGE('',*,*,#60,.T.);
#289=CARTESIAN_POINT('',(-7.96020419445784E-016,-8.69204083889157E-015,13.0000000000001));
#290=DIRECTION('',(6.12323399573677E-017,1.22464679914735E-016,-1.0));
#291=DIRECTION('',(-1.23259516440783E-032,1.0,1.22464679914735E-016));
#292=CARTESIAN_POINT('',(-9.18485099360619E-017,-7.28369701987212E-015,1.50000000000017));
#293=DIRECTION('',(6.12323399573677E-017,1.22464679914735E-016,-1.0));
#294=DIRECTION('',(-1.23259516440783E-032,1.0,1.22464679914735E-016));
#295=FILL_AREA_STYLE('',(#303));
#296=FILL_AREA_STYLE('',(#304));
#297=FILL_AREA_STYLE('',(#305));
#298=FILL_AREA_STYLE('',(#306));
#299=FILL_AREA_STYLE('',(#307));
#300=FILL_AREA_STYLE('',(#308));
#301=FILL_AREA_STYLE('',(#309));
#302=FILL_AREA_STYLE('',(#310));
#303=FILL_AREA_STYLE_COLOUR('',#311);
#304=FILL_AREA_STYLE_COLOUR('',#312);
#305=FILL_AREA_STYLE_COLOUR('',#313);
#306=FILL_AREA_STYLE_COLOUR('',#314);
#307=FILL_AREA_STYLE_COLOUR('',#315);
#308=FILL_AREA_STYLE_COLOUR('',#316);
#309=FILL_AREA_STYLE_COLOUR('',#317);
#310=FILL_AREA_STYLE_COLOUR('',#318);
#311=COLOUR_RGB('',0.501960813999176,0.501960813999176,0.501960813999176);
#312=COLOUR_RGB('',0.501960813999176,0.501960813999176,0.501960813999176);
#313=COLOUR_RGB('',0.501960813999176,0.501960813999176,0.501960813999176);
#314=COLOUR_RGB('',0.501960813999176,0.501960813999176,0.501960813999176);
#315=COLOUR_RGB('',0.501960813999176,0.501960813999176,0.501960813999176);
#316=COLOUR_RGB('',0.501960813999176,0.501960813999176,0.501960813999176);
#317=COLOUR_RGB('',0.501960813999176,0.501960813999176,0.501960813999176);
#318=COLOUR_RGB('',0.501960813999176,0.501960813999176,0.501960813999176);
ENDSEC;
END-ISO-10303-21;
