ISO-10303-21;
HEADER;
FILE_DESCRIPTION((''),'1');
FILE_NAME('T:/00_BIG-HP\X2\FF71FF6FFF8CFF9F\X0\/\X2\670065B0\X0\2025_HP\X2\FF71FF6FFF8CFF9F4E885B9AFF83FF9EFF70FF80\X0\/01_DXF\X2\FF83FF9EFF70FF80\X0\/LINK\X2\7528FF83FF9EFF70FF80\X0\/CK\X2\FF8DFF6FFF84FF9E30FBFF71FF78FF7EFF7BFF98\X0\/10_\X2\4ED54E0A305275284E38FF8AFF9EFF72FF84FF7CFF98FF70FF7DFF9E\X0\/09_\X2\4E38FF8AFF9EFF72FF847528FF7DFF84FF9AFF70FF84FF7AFF9AFF6FFF84\X0\/EC10035.stp','2024-09-10T04:17:15',(''),(''),'Spatial Interop R21 SP3','Kubotek KeyCreator 2011 V10.0.2 (22737)',' ');
FILE_SCHEMA(('automotive_design'));
ENDSEC;
DATA;
#1=MECHANICAL_DESIGN_GEOMETRIC_PRESENTATION_REPRESENTATION(' ',(#10,#11,#12,#13,#14,#15,#16,#17,#18,#19,#20,#21,#22,#23,#24),#6);
#2=PRODUCT_DEFINITION_CONTEXT('',#25,'design');
#3=APPLICATION_PROTOCOL_DEFINITION('INTERNATIONAL STANDARD','automotive_design',1994,#25);
#4=PRODUCT_CATEGORY_RELATIONSHIP('NONE','NONE',#26,#27);
#5=SHAPE_DEFINITION_REPRESENTATION(#28,#29);
#6= (GEOMETRIC_REPRESENTATION_CONTEXT(3)GLOBAL_UNCERTAINTY_ASSIGNED_CONTEXT((#32))GLOBAL_UNIT_ASSIGNED_CONTEXT((#34,#35,#36))REPRESENTATION_CONTEXT('NONE','WORKSPACE'));
#10=STYLED_ITEM('',(#38,#39),#40);
#11=STYLED_ITEM('',(#41,#42),#43);
#12=STYLED_ITEM('',(#44,#45),#46);
#13=STYLED_ITEM('',(#47),#48);
#14=STYLED_ITEM('',(#49),#50);
#15=STYLED_ITEM('',(#51),#52);
#16=STYLED_ITEM('',(#53,#54),#55);
#17=STYLED_ITEM('',(#56),#57);
#18=STYLED_ITEM('',(#58,#59),#60);
#19=STYLED_ITEM('',(#61,#62),#63);
#20=STYLED_ITEM('',(#64,#65),#66);
#21=STYLED_ITEM('',(#67,#68),#69);
#22=STYLED_ITEM('',(#70),#71);
#23=STYLED_ITEM('',(#72),#73);
#24=STYLED_ITEM('',(#74),#75);
#25=APPLICATION_CONTEXT(' ');
#26=PRODUCT_CATEGORY('part','NONE');
#27=PRODUCT_RELATED_PRODUCT_CATEGORY('detail',' ',(#76));
#28=PRODUCT_DEFINITION_SHAPE('NONE','NONE',#77);
#29=ADVANCED_BREP_SHAPE_REPRESENTATION('240[2]',(#63,#78),#6);
#32=UNCERTAINTY_MEASURE_WITH_UNIT(LENGTH_MEASURE(1.0E-006),#34,'','');
#34= (CONVERSION_BASED_UNIT('MILLIMETRE',#81)LENGTH_UNIT()NAMED_UNIT(#84));
#35= (NAMED_UNIT(#86)PLANE_ANGLE_UNIT()SI_UNIT($,.RADIAN.));
#36= (NAMED_UNIT(#86)SOLID_ANGLE_UNIT()SI_UNIT($,.STERADIAN.));
#38=PRESENTATION_STYLE_ASSIGNMENT((#92));
#39=PRESENTATION_STYLE_ASSIGNMENT((#93));
#40=ADVANCED_FACE('240[2]',(#94,#95),#96,.T.);
#41=PRESENTATION_STYLE_ASSIGNMENT((#97));
#42=PRESENTATION_STYLE_ASSIGNMENT((#98));
#43=ADVANCED_FACE('240[2]',(#99,#100),#101,.T.);
#44=PRESENTATION_STYLE_ASSIGNMENT((#102));
#45=PRESENTATION_STYLE_ASSIGNMENT((#103));
#46=ADVANCED_FACE('240[2]',(#104,#105),#106,.T.);
#47=PRESENTATION_STYLE_ASSIGNMENT((#107));
#48=EDGE_CURVE('240[2]',#108,#108,#109,.T.);
#49=PRESENTATION_STYLE_ASSIGNMENT((#110));
#50=EDGE_CURVE('240[2]',#111,#111,#112,.T.);
#51=PRESENTATION_STYLE_ASSIGNMENT((#113));
#52=EDGE_CURVE('240[2]',#114,#114,#115,.T.);
#53=PRESENTATION_STYLE_ASSIGNMENT((#116));
#54=PRESENTATION_STYLE_ASSIGNMENT((#117));
#55=ADVANCED_FACE('240[2]',(#118,#119),#120,.T.);
#56=PRESENTATION_STYLE_ASSIGNMENT((#121));
#57=EDGE_CURVE('240[2]',#122,#122,#123,.T.);
#58=PRESENTATION_STYLE_ASSIGNMENT((#124));
#59=PRESENTATION_STYLE_ASSIGNMENT((#125));
#60=ADVANCED_FACE('240[2]',(#126,#127),#128,.F.);
#61=PRESENTATION_STYLE_ASSIGNMENT((#129));
#62=PRESENTATION_STYLE_ASSIGNMENT((#130));
#63=MANIFOLD_SOLID_BREP('240[2]',#131);
#64=PRESENTATION_STYLE_ASSIGNMENT((#132));
#65=PRESENTATION_STYLE_ASSIGNMENT((#133));
#66=ADVANCED_FACE('240[2]',(#134,#135),#136,.T.);
#67=PRESENTATION_STYLE_ASSIGNMENT((#137));
#68=PRESENTATION_STYLE_ASSIGNMENT((#138));
#69=ADVANCED_FACE('240[2]',(#139,#140),#141,.T.);
#70=PRESENTATION_STYLE_ASSIGNMENT((#142));
#71=EDGE_CURVE('240[2]',#143,#143,#144,.T.);
#72=PRESENTATION_STYLE_ASSIGNMENT((#145));
#73=EDGE_CURVE('240[2]',#146,#146,#147,.T.);
#74=PRESENTATION_STYLE_ASSIGNMENT((#148));
#75=EDGE_CURVE('240[2]',#149,#149,#150,.T.);
#76=PRODUCT('240[2]','240[2]','PART-240[2]-DESC',(#151));
#77=PRODUCT_DEFINITION('NONE','NONE',#152,#2);
#78=AXIS2_PLACEMENT_3D('',#153,#154,#155);
#81=LENGTH_MEASURE_WITH_UNIT(LENGTH_MEASURE(1.0),#156);
#84=DIMENSIONAL_EXPONENTS(1.0,0.0,0.0,0.0,0.0,0.0,0.0);
#86=DIMENSIONAL_EXPONENTS(0.0,0.0,0.0,0.0,0.0,0.0,0.0);
#92=SURFACE_STYLE_USAGE(.BOTH.,#157);
#93=CURVE_STYLE('',#158,POSITIVE_LENGTH_MEASURE(1000.0),#159);
#94=FACE_BOUND('',#160,.T.);
#95=FACE_BOUND('',#161,.T.);
#96=CYLINDRICAL_SURFACE('',#162,5.49999999999997);
#97=SURFACE_STYLE_USAGE(.BOTH.,#163);
#98=CURVE_STYLE('',#164,POSITIVE_LENGTH_MEASURE(1000.0),#165);
#99=FACE_BOUND('',#166,.T.);
#100=FACE_BOUND('',#167,.T.);
#101=CYLINDRICAL_SURFACE('',#168,4.99999999999996);
#102=SURFACE_STYLE_USAGE(.BOTH.,#169);
#103=CURVE_STYLE('',#170,POSITIVE_LENGTH_MEASURE(1000.0),#171);
#104=FACE_OUTER_BOUND('',#172,.T.);
#105=FACE_BOUND('',#173,.T.);
#106=PLANE('',#174);
#107=CURVE_STYLE('',#175,POSITIVE_LENGTH_MEASURE(1000.0),#176);
#108=VERTEX_POINT('',#177);
#109=CIRCLE('',#178,4.99999999999997);
#110=CURVE_STYLE('',#179,POSITIVE_LENGTH_MEASURE(1000.0),#180);
#111=VERTEX_POINT('',#181);
#112=CIRCLE('',#182,4.99999999999995);
#113=CURVE_STYLE('',#183,POSITIVE_LENGTH_MEASURE(1000.0),#184);
#114=VERTEX_POINT('',#185);
#115=CIRCLE('',#186,5.49999999999997);
#116=SURFACE_STYLE_USAGE(.BOTH.,#187);
#117=CURVE_STYLE('',#188,POSITIVE_LENGTH_MEASURE(1000.0),#189);
#118=FACE_BOUND('',#190,.T.);
#119=FACE_BOUND('',#191,.T.);
#120=TOROIDAL_SURFACE('',#192,4.68749999999982,0.812500000000128);
#121=CURVE_STYLE('',#193,POSITIVE_LENGTH_MEASURE(1000.0),#194);
#122=VERTEX_POINT('',#195);
#123=CIRCLE('',#196,5.49999999999997);
#124=SURFACE_STYLE_USAGE(.BOTH.,#197);
#125=CURVE_STYLE('',#198,POSITIVE_LENGTH_MEASURE(1000.0),#199);
#126=FACE_BOUND('',#200,.T.);
#127=FACE_BOUND('',#201,.T.);
#128=CYLINDRICAL_SURFACE('',#202,1.75);
#129=SURFACE_STYLE_USAGE(.BOTH.,#203);
#130=CURVE_STYLE('',#204,POSITIVE_LENGTH_MEASURE(1000.0),#205);
#131=CLOSED_SHELL('',(#66,#43,#55,#46,#40,#69,#60));
#132=SURFACE_STYLE_USAGE(.BOTH.,#206);
#133=CURVE_STYLE('',#207,POSITIVE_LENGTH_MEASURE(1000.0),#208);
#134=FACE_OUTER_BOUND('',#209,.T.);
#135=FACE_BOUND('',#210,.T.);
#136=PLANE('',#211);
#137=SURFACE_STYLE_USAGE(.BOTH.,#212);
#138=CURVE_STYLE('',#213,POSITIVE_LENGTH_MEASURE(1000.0),#214);
#139=FACE_BOUND('',#215,.T.);
#140=FACE_OUTER_BOUND('',#216,.T.);
#141=PLANE('',#217);
#142=CURVE_STYLE('',#218,POSITIVE_LENGTH_MEASURE(1000.0),#219);
#143=VERTEX_POINT('',#220);
#144=CIRCLE('',#221,1.75);
#145=CURVE_STYLE('',#222,POSITIVE_LENGTH_MEASURE(1000.0),#223);
#146=VERTEX_POINT('',#224);
#147=CIRCLE('',#225,1.75);
#148=CURVE_STYLE('',#226,POSITIVE_LENGTH_MEASURE(1000.0),#227);
#149=VERTEX_POINT('',#228);
#150=CIRCLE('',#229,4.99999999999995);
#151=PRODUCT_CONTEXT('',#25,'mechanical');
#152=PRODUCT_DEFINITION_FORMATION_WITH_SPECIFIED_SOURCE(' ','NONE',#76,.NOT_KNOWN.);
#153=CARTESIAN_POINT('',(0.0,0.0,0.0));
#154=DIRECTION('',(0.0,0.0,1.0));
#155=DIRECTION('',(1.0,0.0,0.0));
#156= (NAMED_UNIT(#84)LENGTH_UNIT()SI_UNIT(.MILLI.,.METRE.));
#157=SURFACE_SIDE_STYLE('',(#231));
#158=DRAUGHTING_PRE_DEFINED_CURVE_FONT('continuous');
#159=COLOUR_RGB('',0.501960813999176,0.501960813999176,0.501960813999176);
#160=EDGE_LOOP('',(#232));
#161=EDGE_LOOP('',(#233));
#162=AXIS2_PLACEMENT_3D('',#234,#235,#236);
#163=SURFACE_SIDE_STYLE('',(#237));
#164=DRAUGHTING_PRE_DEFINED_CURVE_FONT('continuous');
#165=COLOUR_RGB('',0.501960813999176,0.501960813999176,0.501960813999176);
#166=EDGE_LOOP('',(#238));
#167=EDGE_LOOP('',(#239));
#168=AXIS2_PLACEMENT_3D('',#240,#241,#242);
#169=SURFACE_SIDE_STYLE('',(#243));
#170=DRAUGHTING_PRE_DEFINED_CURVE_FONT('continuous');
#171=COLOUR_RGB('',0.501960813999176,0.501960813999176,0.501960813999176);
#172=EDGE_LOOP('',(#244));
#173=EDGE_LOOP('',(#245));
#174=AXIS2_PLACEMENT_3D('',#246,#247,#248);
#175=DRAUGHTING_PRE_DEFINED_CURVE_FONT('continuous');
#176=COLOUR_RGB('',0.501960813999176,0.501960813999176,0.501960813999176);
#177=CARTESIAN_POINT('',(-1.50019232895551E-015,4.99999999999996,24.5));
#178=AXIS2_PLACEMENT_3D('',#249,#250,#251);
#179=DRAUGHTING_PRE_DEFINED_CURVE_FONT('continuous');
#180=COLOUR_RGB('',0.501960813999176,0.501960813999176,0.501960813999176);
#181=CARTESIAN_POINT('',(-9.1848509936062E-017,4.99999999999994,1.50000000000017));
#182=AXIS2_PLACEMENT_3D('',#252,#253,#254);
#183=DRAUGHTING_PRE_DEFINED_CURVE_FONT('continuous');
#184=COLOUR_RGB('',0.501960813999176,0.501960813999176,0.501960813999176);
#185=CARTESIAN_POINT('',(-6.77927340424302E-032,5.49999999999996,6.73555739531039E-016));
#186=AXIS2_PLACEMENT_3D('',#255,#256,#257);
#187=SURFACE_SIDE_STYLE('',(#258));
#188=DRAUGHTING_PRE_DEFINED_CURVE_FONT('continuous');
#189=COLOUR_RGB('',0.501960813999176,0.501960813999176,0.501960813999176);
#190=EDGE_LOOP('',(#259));
#191=EDGE_LOOP('',(#260));
#192=AXIS2_PLACEMENT_3D('',#261,#262,#263);
#193=DRAUGHTING_PRE_DEFINED_CURVE_FONT('continuous');
#194=COLOUR_RGB('',0.501960813999176,0.501960813999176,0.501960813999176);
#195=CARTESIAN_POINT('',(6.12323399573676E-017,5.49999999999996,-0.999999999999999));
#196=AXIS2_PLACEMENT_3D('',#264,#265,#266);
#197=SURFACE_SIDE_STYLE('',(#267));
#198=DRAUGHTING_PRE_DEFINED_CURVE_FONT('continuous');
#199=COLOUR_RGB('',0.501960813999176,0.501960813999176,0.501960813999176);
#200=EDGE_LOOP('',(#268));
#201=EDGE_LOOP('',(#269));
#202=AXIS2_PLACEMENT_3D('',#270,#271,#272);
#203=SURFACE_SIDE_STYLE('',(#273));
#204=DRAUGHTING_PRE_DEFINED_CURVE_FONT('continuous');
#205=COLOUR_RGB('',0.501960813999176,0.501960813999176,0.501960813999176);
#206=SURFACE_SIDE_STYLE('',(#274));
#207=DRAUGHTING_PRE_DEFINED_CURVE_FONT('continuous');
#208=COLOUR_RGB('',0.501960813999176,0.501960813999176,0.501960813999176);
#209=EDGE_LOOP('',(#275));
#210=EDGE_LOOP('',(#276));
#211=AXIS2_PLACEMENT_3D('',#277,#278,#279);
#212=SURFACE_SIDE_STYLE('',(#280));
#213=DRAUGHTING_PRE_DEFINED_CURVE_FONT('continuous');
#214=COLOUR_RGB('',0.501960813999176,0.501960813999176,0.501960813999176);
#215=EDGE_LOOP('',(#281));
#216=EDGE_LOOP('',(#282));
#217=AXIS2_PLACEMENT_3D('',#283,#284,#285);
#218=DRAUGHTING_PRE_DEFINED_CURVE_FONT('continuous');
#219=COLOUR_RGB('',0.501960813999176,0.501960813999176,0.501960813999176);
#220=CARTESIAN_POINT('',(-1.50019232895551E-015,1.74999999999999,24.5));
#221=AXIS2_PLACEMENT_3D('',#286,#287,#288);
#222=DRAUGHTING_PRE_DEFINED_CURVE_FONT('continuous');
#223=COLOUR_RGB('',0.501960813999176,0.501960813999176,0.501960813999176);
#224=CARTESIAN_POINT('',(6.12323399573676E-017,1.74999999999999,-1.0));
#225=AXIS2_PLACEMENT_3D('',#289,#290,#291);
#226=DRAUGHTING_PRE_DEFINED_CURVE_FONT('continuous');
#227=COLOUR_RGB('',0.501960813999176,0.501960813999176,0.501960813999176);
#228=CARTESIAN_POINT('',(-6.16297582203909E-032,4.99999999999995,6.1232339957367E-016));
#229=AXIS2_PLACEMENT_3D('',#292,#293,#294);
#231=SURFACE_STYLE_FILL_AREA(#295);
#232=ORIENTED_EDGE('',*,*,#57,.F.);
#233=ORIENTED_EDGE('',*,*,#52,.T.);
#234=CARTESIAN_POINT('',(3.06161699786838E-017,-7.03876766004263E-015,-0.5));
#235=DIRECTION('',(6.12323399573677E-017,1.22464679914735E-016,-1.0));
#236=DIRECTION('',(-1.23259516440783E-032,1.0,1.22464679914735E-016));
#237=SURFACE_STYLE_FILL_AREA(#296);
#238=ORIENTED_EDGE('',*,*,#50,.F.);
#239=ORIENTED_EDGE('',*,*,#48,.T.);
#240=CARTESIAN_POINT('',(-7.96020419445784E-016,-8.69204083889157E-015,13.0000000000001));
#241=DIRECTION('',(6.12323399573677E-017,1.22464679914735E-016,-1.0));
#242=DIRECTION('',(-1.23259516440783E-032,1.0,1.22464679914735E-016));
#243=SURFACE_STYLE_FILL_AREA(#297);
#244=ORIENTED_EDGE('',*,*,#52,.F.);
#245=ORIENTED_EDGE('',*,*,#75,.T.);
#246=CARTESIAN_POINT('',(-6.47112461314106E-032,5.24999999999995,6.42939569552355E-016));
#247=DIRECTION('',(-6.12323399573677E-017,-1.22464679914735E-016,1.0));
#248=DIRECTION('',(1.23259516440783E-032,-1.0,-1.22464679914735E-016));
#249=CARTESIAN_POINT('',(-1.50019232895551E-015,-1.0100384657911E-014,24.5));
#250=DIRECTION('',(6.12323399573677E-017,1.22464679914735E-016,-1.0));
#251=DIRECTION('',(-1.23259516440783E-032,1.0,1.22464679914735E-016));
#252=CARTESIAN_POINT('',(-9.18485099360619E-017,-7.28369701987212E-015,1.50000000000017));
#253=DIRECTION('',(6.12323399573677E-017,1.22464679914735E-016,-1.0));
#254=DIRECTION('',(-1.23259516440783E-032,1.0,1.22464679914735E-016));
#255=CARTESIAN_POINT('',(8.7514256672956E-047,-7.1E-015,-8.69499227394621E-031));
#256=DIRECTION('',(6.12323399573677E-017,1.22464679914735E-016,-1.0));
#257=DIRECTION('',(-1.23259516440783E-032,1.0,1.22464679914735E-016));
#258=SURFACE_STYLE_FILL_AREA(#298);
#259=ORIENTED_EDGE('',*,*,#75,.F.);
#260=ORIENTED_EDGE('',*,*,#50,.T.);
#261=CARTESIAN_POINT('',(-4.59242549680309E-017,-7.19727586753706E-015,0.750000000000085));
#262=DIRECTION('',(6.12323399573677E-017,1.22464679914735E-016,-1.0));
#263=DIRECTION('',(-1.0,-4.82715273076902E-033,-6.12323399573677E-017));
#264=CARTESIAN_POINT('',(6.12323399573677E-017,-6.97753532008527E-015,-1.0));
#265=DIRECTION('',(6.12323399573677E-017,1.22464679914735E-016,-1.0));
#266=DIRECTION('',(-1.23259516440783E-032,1.0,1.22464679914735E-016));
#267=SURFACE_STYLE_FILL_AREA(#299);
#268=ORIENTED_EDGE('',*,*,#71,.F.);
#269=ORIENTED_EDGE('',*,*,#73,.T.);
#270=CARTESIAN_POINT('',(-7.1947999449907E-016,-8.53895998899814E-015,11.75));
#271=DIRECTION('',(6.12323399573677E-017,1.22464679914735E-016,-1.0));
#272=DIRECTION('',(-1.23259516440783E-032,1.0,1.22464679914735E-016));
#273=SURFACE_STYLE_FILL_AREA(#300);
#274=SURFACE_STYLE_FILL_AREA(#301);
#275=ORIENTED_EDGE('',*,*,#48,.F.);
#276=ORIENTED_EDGE('',*,*,#71,.T.);
#277=CARTESIAN_POINT('',(-1.50019232895551E-015,3.37499999999997,24.5));
#278=DIRECTION('',(-6.12323399573677E-017,-1.22464679914735E-016,1.0));
#279=DIRECTION('',(1.23259516440783E-032,-1.0,-1.22464679914735E-016));
#280=SURFACE_STYLE_FILL_AREA(#302);
#281=ORIENTED_EDGE('',*,*,#73,.F.);
#282=ORIENTED_EDGE('',*,*,#57,.T.);
#283=CARTESIAN_POINT('',(6.12323399573676E-017,3.62499999999998,-1.0));
#284=DIRECTION('',(6.12323399573677E-017,1.22464679914735E-016,-1.0));
#285=DIRECTION('',(-1.23259516440783E-032,1.0,1.22464679914735E-016));
#286=CARTESIAN_POINT('',(-1.50019232895551E-015,-1.0100384657911E-014,24.5));
#287=DIRECTION('',(6.12323399573677E-017,1.22464679914735E-016,-1.0));
#288=DIRECTION('',(-1.23259516440783E-032,1.0,1.22464679914735E-016));
#289=CARTESIAN_POINT('',(6.12323399573677E-017,-6.97753532008527E-015,-1.0));
#290=DIRECTION('',(6.12323399573677E-017,1.22464679914735E-016,-1.0));
#291=DIRECTION('',(-1.23259516440783E-032,1.0,1.22464679914735E-016));
#292=CARTESIAN_POINT('',(8.7514256672956E-047,-7.1E-015,-8.69499227394621E-031));
#293=DIRECTION('',(6.12323399573677E-017,1.22464679914735E-016,-1.0));
#294=DIRECTION('',(-1.23259516440783E-032,1.0,1.22464679914735E-016));
#295=FILL_AREA_STYLE('',(#303));
#296=FILL_AREA_STYLE('',(#304));
#297=FILL_AREA_STYLE('',(#305));
#298=FILL_AREA_STYLE('',(#306));
#299=FILL_AREA_STYLE('',(#307));
#300=FILL_AREA_STYLE('',(#308));
#301=FILL_AREA_STYLE('',(#309));
#302=FILL_AREA_STYLE('',(#310));
#303=FILL_AREA_STYLE_COLOUR('',#311);
#304=FILL_AREA_STYLE_COLOUR('',#312);
#305=FILL_AREA_STYLE_COLOUR('',#313);
#306=FILL_AREA_STYLE_COLOUR('',#314);
#307=FILL_AREA_STYLE_COLOUR('',#315);
#308=FILL_AREA_STYLE_COLOUR('',#316);
#309=FILL_AREA_STYLE_COLOUR('',#317);
#310=FILL_AREA_STYLE_COLOUR('',#318);
#311=COLOUR_RGB('',0.501960813999176,0.501960813999176,0.501960813999176);
#312=COLOUR_RGB('',0.501960813999176,0.501960813999176,0.501960813999176);
#313=COLOUR_RGB('',0.501960813999176,0.501960813999176,0.501960813999176);
#314=COLOUR_RGB('',0.501960813999176,0.501960813999176,0.501960813999176);
#315=COLOUR_RGB('',0.501960813999176,0.501960813999176,0.501960813999176);
#316=COLOUR_RGB('',0.501960813999176,0.501960813999176,0.501960813999176);
#317=COLOUR_RGB('',0.501960813999176,0.501960813999176,0.501960813999176);
#318=COLOUR_RGB('',0.501960813999176,0.501960813999176,0.501960813999176);
ENDSEC;
END-ISO-10303-21;
