ISO-10303-21;
HEADER;
FILE_DESCRIPTION((''),'1');
FILE_NAME('V:/00_BIG-HP\X2\FF71FF6FFF8CFF9F6E965099\X0\2019/CKB5-SW53DP-220.stp','2019-02-27T08:19:22',(''),(''),'Spatial Interop R21 SP3','Kubotek KeyCreator 2011 V10.0.2 (22737)',' ');
FILE_SCHEMA(('automotive_design'));
ENDSEC;
DATA;
#1=MECHANICAL_DESIGN_GEOMETRIC_PRESENTATION_REPRESENTATION(' ',(#10,#11,#12,#13,#14,#15,#16,#17,#18,#19,#20,#21,#22,#23,#24,#25,#26,#27,#28,#29,#30,#31,#32,#33,#34,#35,#36,#37,#38,#39,#40,#41),#6);
#2=PRODUCT_DEFINITION_CONTEXT('',#42,'design');
#3=APPLICATION_PROTOCOL_DEFINITION('INTERNATIONAL STANDARD','automotive_design',1994,#42);
#4=PRODUCT_CATEGORY_RELATIONSHIP('NONE','NONE',#43,#44);
#5=SHAPE_DEFINITION_REPRESENTATION(#45,#46);
#6= (GEOMETRIC_REPRESENTATION_CONTEXT(3)GLOBAL_UNCERTAINTY_ASSIGNED_CONTEXT((#49))GLOBAL_UNIT_ASSIGNED_CONTEXT((#51,#52,#53))REPRESENTATION_CONTEXT('NONE','WORKSPACE'));
#10=STYLED_ITEM('',(#55),#56);
#11=STYLED_ITEM('',(#57),#58);
#12=STYLED_ITEM('',(#59),#60);
#13=STYLED_ITEM('',(#61),#62);
#14=STYLED_ITEM('',(#63,#64),#65);
#15=STYLED_ITEM('',(#66,#67),#68);
#16=STYLED_ITEM('',(#69),#70);
#17=STYLED_ITEM('',(#71),#72);
#18=STYLED_ITEM('',(#73,#74),#75);
#19=STYLED_ITEM('',(#76),#77);
#20=STYLED_ITEM('',(#78),#79);
#21=STYLED_ITEM('',(#80,#81),#82);
#22=STYLED_ITEM('',(#83),#84);
#23=STYLED_ITEM('',(#85,#86),#87);
#24=STYLED_ITEM('',(#88,#89),#90);
#25=STYLED_ITEM('',(#91,#92),#93);
#26=STYLED_ITEM('',(#94),#95);
#27=STYLED_ITEM('',(#96),#97);
#28=STYLED_ITEM('',(#98),#99);
#29=STYLED_ITEM('',(#100,#101),#102);
#30=STYLED_ITEM('',(#103),#104);
#31=STYLED_ITEM('',(#105,#106),#107);
#32=STYLED_ITEM('',(#108),#109);
#33=STYLED_ITEM('',(#110),#111);
#34=STYLED_ITEM('',(#112,#113),#114);
#35=STYLED_ITEM('',(#115),#116);
#36=STYLED_ITEM('',(#117),#118);
#37=STYLED_ITEM('',(#119),#120);
#38=STYLED_ITEM('',(#121,#122),#123);
#39=STYLED_ITEM('',(#124),#125);
#40=STYLED_ITEM('',(#126),#127);
#41=STYLED_ITEM('',(#128),#129);
#42=APPLICATION_CONTEXT(' ');
#43=PRODUCT_CATEGORY('part','NONE');
#44=PRODUCT_RELATED_PRODUCT_CATEGORY('detail',' ',(#130));
#45=PRODUCT_DEFINITION_SHAPE('NONE','NONE',#131);
#46=ADVANCED_BREP_SHAPE_REPRESENTATION('240[2]',(#107,#132),#6);
#49=UNCERTAINTY_MEASURE_WITH_UNIT(LENGTH_MEASURE(1.0E-006),#51,'','');
#51= (CONVERSION_BASED_UNIT('MILLIMETRE',#135)LENGTH_UNIT()NAMED_UNIT(#138));
#52= (NAMED_UNIT(#140)PLANE_ANGLE_UNIT()SI_UNIT($,.RADIAN.));
#53= (NAMED_UNIT(#140)SOLID_ANGLE_UNIT()SI_UNIT($,.STERADIAN.));
#55=PRESENTATION_STYLE_ASSIGNMENT((#146));
#56=EDGE_CURVE('240[2]',#147,#148,#149,.T.);
#57=PRESENTATION_STYLE_ASSIGNMENT((#150));
#58=EDGE_CURVE('240[2]',#151,#152,#153,.T.);
#59=PRESENTATION_STYLE_ASSIGNMENT((#154));
#60=EDGE_CURVE('240[2]',#155,#156,#157,.T.);
#61=PRESENTATION_STYLE_ASSIGNMENT((#158));
#62=EDGE_CURVE('240[2]',#156,#159,#160,.T.);
#63=PRESENTATION_STYLE_ASSIGNMENT((#161));
#64=PRESENTATION_STYLE_ASSIGNMENT((#162));
#65=ADVANCED_FACE('240[2]',(#163),#164,.T.);
#66=PRESENTATION_STYLE_ASSIGNMENT((#165));
#67=PRESENTATION_STYLE_ASSIGNMENT((#166));
#68=ADVANCED_FACE('240[2]',(#167),#168,.T.);
#69=PRESENTATION_STYLE_ASSIGNMENT((#169));
#70=EDGE_CURVE('240[2]',#170,#147,#171,.T.);
#71=PRESENTATION_STYLE_ASSIGNMENT((#172));
#72=EDGE_CURVE('240[2]',#173,#148,#174,.T.);
#73=PRESENTATION_STYLE_ASSIGNMENT((#175));
#74=PRESENTATION_STYLE_ASSIGNMENT((#176));
#75=ADVANCED_FACE('240[2]',(#177),#178,.F.);
#76=PRESENTATION_STYLE_ASSIGNMENT((#179));
#77=EDGE_CURVE('240[2]',#180,#180,#181,.T.);
#78=PRESENTATION_STYLE_ASSIGNMENT((#182));
#79=EDGE_CURVE('240[2]',#156,#152,#183,.T.);
#80=PRESENTATION_STYLE_ASSIGNMENT((#184));
#81=PRESENTATION_STYLE_ASSIGNMENT((#185));
#82=ADVANCED_FACE('240[2]',(#186),#187,.F.);
#83=PRESENTATION_STYLE_ASSIGNMENT((#188));
#84=EDGE_CURVE('240[2]',#152,#189,#190,.T.);
#85=PRESENTATION_STYLE_ASSIGNMENT((#191));
#86=PRESENTATION_STYLE_ASSIGNMENT((#192));
#87=ADVANCED_FACE('240[2]',(#193),#194,.F.);
#88=PRESENTATION_STYLE_ASSIGNMENT((#195));
#89=PRESENTATION_STYLE_ASSIGNMENT((#196));
#90=ADVANCED_FACE('240[2]',(#197),#198,.F.);
#91=PRESENTATION_STYLE_ASSIGNMENT((#199));
#92=PRESENTATION_STYLE_ASSIGNMENT((#200));
#93=ADVANCED_FACE('240[2]',(#201),#202,.F.);
#94=PRESENTATION_STYLE_ASSIGNMENT((#203));
#95=EDGE_CURVE('240[2]',#189,#204,#205,.T.);
#96=PRESENTATION_STYLE_ASSIGNMENT((#206));
#97=EDGE_CURVE('240[2]',#207,#151,#208,.T.);
#98=PRESENTATION_STYLE_ASSIGNMENT((#209));
#99=EDGE_CURVE('240[2]',#147,#156,#210,.T.);
#100=PRESENTATION_STYLE_ASSIGNMENT((#211));
#101=PRESENTATION_STYLE_ASSIGNMENT((#212));
#102=ADVANCED_FACE('240[2]',(#213),#214,.F.);
#103=PRESENTATION_STYLE_ASSIGNMENT((#215));
#104=EDGE_CURVE('240[2]',#155,#189,#216,.T.);
#105=PRESENTATION_STYLE_ASSIGNMENT((#217));
#106=PRESENTATION_STYLE_ASSIGNMENT((#218));
#107=MANIFOLD_SOLID_BREP('240[2]',#219);
#108=PRESENTATION_STYLE_ASSIGNMENT((#220));
#109=EDGE_CURVE('240[2]',#221,#173,#222,.T.);
#110=PRESENTATION_STYLE_ASSIGNMENT((#223));
#111=EDGE_CURVE('240[2]',#221,#159,#224,.T.);
#112=PRESENTATION_STYLE_ASSIGNMENT((#225));
#113=PRESENTATION_STYLE_ASSIGNMENT((#226));
#114=ADVANCED_FACE('240[2]',(#227),#228,.F.);
#115=PRESENTATION_STYLE_ASSIGNMENT((#229));
#116=EDGE_CURVE('240[2]',#170,#155,#230,.T.);
#117=PRESENTATION_STYLE_ASSIGNMENT((#231));
#118=EDGE_CURVE('240[2]',#159,#173,#232,.T.);
#119=PRESENTATION_STYLE_ASSIGNMENT((#233));
#120=EDGE_CURVE('240[2]',#148,#170,#234,.T.);
#121=PRESENTATION_STYLE_ASSIGNMENT((#235));
#122=PRESENTATION_STYLE_ASSIGNMENT((#236));
#123=ADVANCED_FACE('240[2]',(#237,#238),#239,.T.);
#124=PRESENTATION_STYLE_ASSIGNMENT((#240));
#125=EDGE_CURVE('240[2]',#204,#207,#241,.T.);
#126=PRESENTATION_STYLE_ASSIGNMENT((#242));
#127=EDGE_CURVE('240[2]',#207,#221,#243,.T.);
#128=PRESENTATION_STYLE_ASSIGNMENT((#244));
#129=EDGE_CURVE('240[2]',#151,#204,#245,.T.);
#130=PRODUCT('240[2]','240[2]','PART-240[2]-DESC',(#246));
#131=PRODUCT_DEFINITION('NONE','NONE',#247,#2);
#132=AXIS2_PLACEMENT_3D('',#248,#249,#250);
#135=LENGTH_MEASURE_WITH_UNIT(LENGTH_MEASURE(1.0),#251);
#138=DIMENSIONAL_EXPONENTS(1.0,0.0,0.0,0.0,0.0,0.0,0.0);
#140=DIMENSIONAL_EXPONENTS(0.0,0.0,0.0,0.0,0.0,0.0,0.0);
#146=CURVE_STYLE('',#252,POSITIVE_LENGTH_MEASURE(1000.0),#253);
#147=VERTEX_POINT('',#254);
#148=VERTEX_POINT('',#255);
#149=LINE('',#256,#257);
#150=CURVE_STYLE('',#258,POSITIVE_LENGTH_MEASURE(1000.0),#259);
#151=VERTEX_POINT('',#260);
#152=VERTEX_POINT('',#261);
#153=LINE('',#262,#263);
#154=CURVE_STYLE('',#264,POSITIVE_LENGTH_MEASURE(1000.0),#265);
#155=VERTEX_POINT('',#266);
#156=VERTEX_POINT('',#267);
#157=LINE('',#268,#269);
#158=CURVE_STYLE('',#270,POSITIVE_LENGTH_MEASURE(1000.0),#271);
#159=VERTEX_POINT('',#272);
#160=LINE('',#273,#274);
#161=SURFACE_STYLE_USAGE(.BOTH.,#275);
#162=CURVE_STYLE('',#276,POSITIVE_LENGTH_MEASURE(1000.0),#277);
#163=FACE_OUTER_BOUND('',#278,.T.);
#164=PLANE('',#279);
#165=SURFACE_STYLE_USAGE(.BOTH.,#280);
#166=CURVE_STYLE('',#281,POSITIVE_LENGTH_MEASURE(1000.0),#282);
#167=FACE_OUTER_BOUND('',#283,.T.);
#168=PLANE('',#284);
#169=CURVE_STYLE('',#285,POSITIVE_LENGTH_MEASURE(1000.0),#286);
#170=VERTEX_POINT('',#287);
#171=CIRCLE('',#288,10.0);
#172=CURVE_STYLE('',#289,POSITIVE_LENGTH_MEASURE(1000.0),#290);
#173=VERTEX_POINT('',#291);
#174=LINE('',#292,#293);
#175=SURFACE_STYLE_USAGE(.BOTH.,#294);
#176=CURVE_STYLE('',#295,POSITIVE_LENGTH_MEASURE(1000.0),#296);
#177=FACE_OUTER_BOUND('',#297,.T.);
#178=CYLINDRICAL_SURFACE('',#298,10.0);
#179=CURVE_STYLE('',#299,POSITIVE_LENGTH_MEASURE(1000.0),#300);
#180=VERTEX_POINT('',#301);
#181=CIRCLE('',#302,25.0);
#182=CURVE_STYLE('',#303,POSITIVE_LENGTH_MEASURE(1000.0),#304);
#183=LINE('',#305,#306);
#184=SURFACE_STYLE_USAGE(.BOTH.,#307);
#185=CURVE_STYLE('',#308,POSITIVE_LENGTH_MEASURE(1000.0),#309);
#186=FACE_OUTER_BOUND('',#310,.T.);
#187=PLANE('',#311);
#188=CURVE_STYLE('',#312,POSITIVE_LENGTH_MEASURE(1000.0),#313);
#189=VERTEX_POINT('',#314);
#190=LINE('',#315,#316);
#191=SURFACE_STYLE_USAGE(.BOTH.,#317);
#192=CURVE_STYLE('',#318,POSITIVE_LENGTH_MEASURE(1000.0),#319);
#193=FACE_OUTER_BOUND('',#320,.T.);
#194=PLANE('',#321);
#195=SURFACE_STYLE_USAGE(.BOTH.,#322);
#196=CURVE_STYLE('',#323,POSITIVE_LENGTH_MEASURE(1000.0),#324);
#197=FACE_OUTER_BOUND('',#325,.T.);
#198=CYLINDRICAL_SURFACE('',#326,10.0);
#199=SURFACE_STYLE_USAGE(.BOTH.,#327);
#200=CURVE_STYLE('',#328,POSITIVE_LENGTH_MEASURE(1000.0),#329);
#201=FACE_OUTER_BOUND('',#330,.T.);
#202=PLANE('',#331);
#203=CURVE_STYLE('',#332,POSITIVE_LENGTH_MEASURE(1000.0),#333);
#204=VERTEX_POINT('',#334);
#205=LINE('',#335,#336);
#206=CURVE_STYLE('',#337,POSITIVE_LENGTH_MEASURE(1000.0),#338);
#207=VERTEX_POINT('',#339);
#208=CIRCLE('',#340,10.0);
#209=CURVE_STYLE('',#341,POSITIVE_LENGTH_MEASURE(1000.0),#342);
#210=LINE('',#343,#344);
#211=SURFACE_STYLE_USAGE(.BOTH.,#345);
#212=CURVE_STYLE('',#346,POSITIVE_LENGTH_MEASURE(1000.0),#347);
#213=FACE_OUTER_BOUND('',#348,.T.);
#214=PLANE('',#349);
#215=CURVE_STYLE('',#350,POSITIVE_LENGTH_MEASURE(1000.0),#351);
#216=CIRCLE('',#352,25.0);
#217=SURFACE_STYLE_USAGE(.BOTH.,#353);
#218=CURVE_STYLE('',#354,POSITIVE_LENGTH_MEASURE(1000.0),#355);
#219=CLOSED_SHELL('',(#68,#123,#87,#90,#93,#82,#75,#65,#114,#102));
#220=CURVE_STYLE('',#356,POSITIVE_LENGTH_MEASURE(1000.0),#357);
#221=VERTEX_POINT('',#358);
#222=CIRCLE('',#359,25.0);
#223=CURVE_STYLE('',#360,POSITIVE_LENGTH_MEASURE(1000.0),#361);
#224=LINE('',#362,#363);
#225=SURFACE_STYLE_USAGE(.BOTH.,#364);
#226=CURVE_STYLE('',#365,POSITIVE_LENGTH_MEASURE(1000.0),#366);
#227=FACE_OUTER_BOUND('',#367,.T.);
#228=PLANE('',#368);
#229=CURVE_STYLE('',#369,POSITIVE_LENGTH_MEASURE(1000.0),#370);
#230=LINE('',#371,#372);
#231=CURVE_STYLE('',#373,POSITIVE_LENGTH_MEASURE(1000.0),#374);
#232=LINE('',#375,#376);
#233=CURVE_STYLE('',#377,POSITIVE_LENGTH_MEASURE(1000.0),#378);
#234=B_SPLINE_CURVE_WITH_KNOTS('',3,(#379,#380,#381,#382,#383,#384,#385,#386,#387,#388,#389,#390,#391,#392),.UNSPECIFIED.,.F.,.F.,(4,2,2,2,2,2,4),(3.23746765965216,3.50468928992045,3.77191092018875,4.20227145705762,4.6326319939265,5.06299253079538,5.49335306766425),.UNSPECIFIED.);
#235=SURFACE_STYLE_USAGE(.BOTH.,#393);
#236=CURVE_STYLE('',#394,POSITIVE_LENGTH_MEASURE(1000.0),#395);
#237=FACE_BOUND('',#396,.T.);
#238=FACE_BOUND('',#397,.T.);
#239=CYLINDRICAL_SURFACE('',#398,25.0);
#240=CURVE_STYLE('',#399,POSITIVE_LENGTH_MEASURE(1000.0),#400);
#241=B_SPLINE_CURVE_WITH_KNOTS('',3,(#401,#402,#403,#404,#405,#406,#407,#408,#409,#410,#411,#412,#413,#414),.UNSPECIFIED.,.F.,.F.,(4,2,2,2,2,2,4),(3.23783471956106,3.50505634982935,3.77227798009765,4.20263851696653,4.6329990538354,5.06335959070428,5.49372012757315),.UNSPECIFIED.);
#242=CURVE_STYLE('',#415,POSITIVE_LENGTH_MEASURE(1000.0),#416);
#243=LINE('',#417,#418);
#244=CURVE_STYLE('',#419,POSITIVE_LENGTH_MEASURE(1000.0),#420);
#245=LINE('',#421,#422);
#246=PRODUCT_CONTEXT('',#42,'mechanical');
#247=PRODUCT_DEFINITION_FORMATION_WITH_SPECIFIED_SOURCE(' ','NONE',#130,.NOT_KNOWN.);
#248=CARTESIAN_POINT('',(0.0,0.0,0.0));
#249=DIRECTION('',(0.0,0.0,1.0));
#250=DIRECTION('',(1.0,0.0,0.0));
#251= (NAMED_UNIT(#138)LENGTH_UNIT()SI_UNIT(.MILLI.,.METRE.));
#252=DRAUGHTING_PRE_DEFINED_CURVE_FONT('continuous');
#253=COLOUR_RGB('',0.0,1.0,1.0);
#254=CARTESIAN_POINT('',(-18.5,0.0,-185.549999999998));
#255=CARTESIAN_POINT('',(-18.5,16.8151717208002,-185.549999999998));
#256=CARTESIAN_POINT('',(-18.5,0.0,-185.549999999998));
#257=VECTOR('',#424,16.8151717208002);
#258=DRAUGHTING_PRE_DEFINED_CURVE_FONT('continuous');
#259=COLOUR_RGB('',0.0,1.0,1.0);
#260=CARTESIAN_POINT('',(18.5,-2.265522E-015,-185.549999999998));
#261=CARTESIAN_POINT('',(18.5,0.0,-192.4));
#262=CARTESIAN_POINT('',(18.5,-2.265522E-015,-185.549999999998));
#263=VECTOR('',#425,6.85000000000191);
#264=DRAUGHTING_PRE_DEFINED_CURVE_FONT('continuous');
#265=COLOUR_RGB('',0.0,1.0,1.0);
#266=CARTESIAN_POINT('',(-25.0,0.0,-192.4));
#267=CARTESIAN_POINT('',(-18.5,0.0,-192.4));
#268=CARTESIAN_POINT('',(-25.0,0.0,-192.4));
#269=VECTOR('',#426,6.5);
#270=DRAUGHTING_PRE_DEFINED_CURVE_FONT('continuous');
#271=COLOUR_RGB('',0.0,1.0,1.0);
#272=CARTESIAN_POINT('',(-18.5,0.0,-192.6));
#273=CARTESIAN_POINT('',(-18.5,0.0,-192.4));
#274=VECTOR('',#427,0.200000000000003);
#275=SURFACE_SIDE_STYLE('',(#428));
#276=DRAUGHTING_PRE_DEFINED_CURVE_FONT('continuous');
#277=COLOUR_RGB('',0.0,1.0,1.0);
#278=EDGE_LOOP('',(#429,#430,#431,#432));
#279=AXIS2_PLACEMENT_3D('',#433,#434,#435);
#280=SURFACE_SIDE_STYLE('',(#436));
#281=DRAUGHTING_PRE_DEFINED_CURVE_FONT('continuous');
#282=COLOUR_RGB('',0.0,1.0,1.0);
#283=EDGE_LOOP('',(#437));
#284=AXIS2_PLACEMENT_3D('',#438,#439,#440);
#285=DRAUGHTING_PRE_DEFINED_CURVE_FONT('continuous');
#286=COLOUR_RGB('',0.0,1.0,1.0);
#287=CARTESIAN_POINT('',(-25.0,0.0,-176.1825030024));
#288=AXIS2_PLACEMENT_3D('',#441,#442,#443);
#289=DRAUGHTING_PRE_DEFINED_CURVE_FONT('continuous');
#290=COLOUR_RGB('',0.0,1.0,1.0);
#291=CARTESIAN_POINT('',(-18.5,16.8151717208002,-192.6));
#292=CARTESIAN_POINT('',(-18.5,16.8151717208002,-192.6));
#293=VECTOR('',#444,7.05000000000191);
#294=SURFACE_SIDE_STYLE('',(#445));
#295=DRAUGHTING_PRE_DEFINED_CURVE_FONT('continuous');
#296=COLOUR_RGB('',0.0,1.0,1.0);
#297=EDGE_LOOP('',(#446,#447,#448));
#298=AXIS2_PLACEMENT_3D('',#449,#450,#451);
#299=DRAUGHTING_PRE_DEFINED_CURVE_FONT('continuous');
#300=COLOUR_RGB('',0.0,1.0,1.0);
#301=CARTESIAN_POINT('',(25.0,3.06161699786838E-015,0.0));
#302=AXIS2_PLACEMENT_3D('',#452,#453,#454);
#303=DRAUGHTING_PRE_DEFINED_CURVE_FONT('continuous');
#304=COLOUR_RGB('',0.0,1.0,1.0);
#305=CARTESIAN_POINT('',(-18.5,0.0,-192.4));
#306=VECTOR('',#455,37.0);
#307=SURFACE_SIDE_STYLE('',(#456));
#308=DRAUGHTING_PRE_DEFINED_CURVE_FONT('continuous');
#309=COLOUR_RGB('',0.0,1.0,1.0);
#310=EDGE_LOOP('',(#457,#458,#459,#460,#461));
#311=AXIS2_PLACEMENT_3D('',#462,#463,#464);
#312=DRAUGHTING_PRE_DEFINED_CURVE_FONT('continuous');
#313=COLOUR_RGB('',0.0,1.0,1.0);
#314=CARTESIAN_POINT('',(18.5,-16.8151717208002,-192.4));
#315=CARTESIAN_POINT('',(18.5,0.0,-192.4));
#316=VECTOR('',#465,16.8151717208002);
#317=SURFACE_SIDE_STYLE('',(#466));
#318=DRAUGHTING_PRE_DEFINED_CURVE_FONT('continuous');
#319=COLOUR_RGB('',0.0,1.0,1.0);
#320=EDGE_LOOP('',(#467,#468,#469,#470));
#321=AXIS2_PLACEMENT_3D('',#471,#472,#473);
#322=SURFACE_SIDE_STYLE('',(#474));
#323=DRAUGHTING_PRE_DEFINED_CURVE_FONT('continuous');
#324=COLOUR_RGB('',0.0,1.0,1.0);
#325=EDGE_LOOP('',(#475,#476,#477));
#326=AXIS2_PLACEMENT_3D('',#478,#479,#480);
#327=SURFACE_SIDE_STYLE('',(#481));
#328=DRAUGHTING_PRE_DEFINED_CURVE_FONT('continuous');
#329=COLOUR_RGB('',0.0,1.0,1.0);
#330=EDGE_LOOP('',(#482,#483,#484,#485));
#331=AXIS2_PLACEMENT_3D('',#486,#487,#488);
#332=DRAUGHTING_PRE_DEFINED_CURVE_FONT('continuous');
#333=COLOUR_RGB('',0.0,1.0,1.0);
#334=CARTESIAN_POINT('',(18.5,-16.8151717208002,-185.549999999998));
#335=CARTESIAN_POINT('',(18.5,-16.8151717208002,-192.4));
#336=VECTOR('',#489,6.85000000000192);
#337=DRAUGHTING_PRE_DEFINED_CURVE_FONT('continuous');
#338=COLOUR_RGB('',0.0,1.0,1.0);
#339=CARTESIAN_POINT('',(25.0,-3.061516E-015,-176.1825030024));
#340=AXIS2_PLACEMENT_3D('',#490,#491,#492);
#341=DRAUGHTING_PRE_DEFINED_CURVE_FONT('continuous');
#342=COLOUR_RGB('',0.0,1.0,1.0);
#343=CARTESIAN_POINT('',(-18.5,0.0,-185.549999999998));
#344=VECTOR('',#493,6.85000000000191);
#345=SURFACE_SIDE_STYLE('',(#494));
#346=DRAUGHTING_PRE_DEFINED_CURVE_FONT('continuous');
#347=COLOUR_RGB('',0.0,1.0,1.0);
#348=EDGE_LOOP('',(#495,#496,#497));
#349=AXIS2_PLACEMENT_3D('',#498,#499,#500);
#350=DRAUGHTING_PRE_DEFINED_CURVE_FONT('continuous');
#351=COLOUR_RGB('',0.0,1.0,1.0);
#352=AXIS2_PLACEMENT_3D('',#501,#502,#503);
#353=SURFACE_SIDE_STYLE('',(#504));
#354=DRAUGHTING_PRE_DEFINED_CURVE_FONT('continuous');
#355=COLOUR_RGB('',0.0,1.0,1.0);
#356=DRAUGHTING_PRE_DEFINED_CURVE_FONT('continuous');
#357=COLOUR_RGB('',0.0,1.0,1.0);
#358=CARTESIAN_POINT('',(25.0,0.0,-192.6));
#359=AXIS2_PLACEMENT_3D('',#505,#506,#507);
#360=DRAUGHTING_PRE_DEFINED_CURVE_FONT('continuous');
#361=COLOUR_RGB('',0.0,1.0,1.0);
#362=CARTESIAN_POINT('',(25.0,0.0,-192.6));
#363=VECTOR('',#508,43.5);
#364=SURFACE_SIDE_STYLE('',(#509));
#365=DRAUGHTING_PRE_DEFINED_CURVE_FONT('continuous');
#366=COLOUR_RGB('',0.0,1.0,1.0);
#367=EDGE_LOOP('',(#510,#511,#512,#513,#514,#515));
#368=AXIS2_PLACEMENT_3D('',#516,#517,#518);
#369=DRAUGHTING_PRE_DEFINED_CURVE_FONT('continuous');
#370=COLOUR_RGB('',0.0,1.0,1.0);
#371=CARTESIAN_POINT('',(-25.0,0.0,-176.1825030024));
#372=VECTOR('',#519,16.2174969975995);
#373=DRAUGHTING_PRE_DEFINED_CURVE_FONT('continuous');
#374=COLOUR_RGB('',0.0,1.0,1.0);
#375=CARTESIAN_POINT('',(-18.5,0.0,-192.6));
#376=VECTOR('',#520,16.8151717208002);
#377=DRAUGHTING_PRE_DEFINED_CURVE_FONT('continuous');
#378=COLOUR_RGB('',0.0,1.0,1.0);
#379=CARTESIAN_POINT('',(-18.5,16.8151717208002,-185.549999999998));
#380=CARTESIAN_POINT('',(-18.5,16.8151717208002,-184.659261232437));
#381=CARTESIAN_POINT('',(-18.6285479280023,16.6768291042887,-183.713515280767));
#382=CARTESIAN_POINT('',(-19.1183250054155,16.1130105377457,-181.971958132502));
#383=CARTESIAN_POINT('',(-19.476572980565,15.685704488513,-181.175902790694));
#384=CARTESIAN_POINT('',(-20.452517503385,14.4109514703745,-179.493810136656));
#385=CARTESIAN_POINT('',(-21.1232896722959,13.4331906784524,-178.744389952324));
#386=CARTESIAN_POINT('',(-22.3867410527247,11.2016875698314,-177.590085032959));
#387=CARTESIAN_POINT('',(-22.9811204022324,9.94572320849858,-177.191366783448));
#388=CARTESIAN_POINT('',(-23.9662413437835,7.25733538881189,-176.618622684164));
#389=CARTESIAN_POINT('',(-24.3567533109832,5.82532743156136,-176.444388857338));
#390=CARTESIAN_POINT('',(-24.8735808900972,2.91390562689016,-176.226495771238));
#391=CARTESIAN_POINT('',(-25.0,1.43453512289625,-176.1825030024));
#392=CARTESIAN_POINT('',(-25.0,0.0,-176.1825030024));
#393=SURFACE_SIDE_STYLE('',(#521));
#394=DRAUGHTING_PRE_DEFINED_CURVE_FONT('continuous');
#395=COLOUR_RGB('',0.0,1.0,1.0);
#396=EDGE_LOOP('',(#522));
#397=EDGE_LOOP('',(#523,#524,#525,#526,#527,#528,#529,#530));
#398=AXIS2_PLACEMENT_3D('',#531,#532,#533);
#399=DRAUGHTING_PRE_DEFINED_CURVE_FONT('continuous');
#400=COLOUR_RGB('',0.0,1.0,1.0);
#401=CARTESIAN_POINT('',(18.5,-16.8151717208002,-185.549999999998));
#402=CARTESIAN_POINT('',(18.5,-16.8151717208002,-184.659261232437));
#403=CARTESIAN_POINT('',(18.6285479280023,-16.6768291042887,-183.713515280767));
#404=CARTESIAN_POINT('',(19.1183250054155,-16.1130105377457,-181.971958132502));
#405=CARTESIAN_POINT('',(19.476572980565,-15.685704488513,-181.175902790694));
#406=CARTESIAN_POINT('',(20.452517503385,-14.4109514703745,-179.493810136656));
#407=CARTESIAN_POINT('',(21.1232896722959,-13.4331906784524,-178.744389952324));
#408=CARTESIAN_POINT('',(22.3867410527247,-11.2016875698314,-177.590085032959));
#409=CARTESIAN_POINT('',(22.9811204022323,-9.94572320849858,-177.191366783448));
#410=CARTESIAN_POINT('',(23.9662413437835,-7.25733538881189,-176.618622684164));
#411=CARTESIAN_POINT('',(24.3567533109832,-5.82532743156137,-176.444388857338));
#412=CARTESIAN_POINT('',(24.8735808900972,-2.91390562689017,-176.226495771238));
#413=CARTESIAN_POINT('',(25.0,-1.43453512289626,-176.1825030024));
#414=CARTESIAN_POINT('',(25.0,-3.061516E-015,-176.1825030024));
#415=DRAUGHTING_PRE_DEFINED_CURVE_FONT('continuous');
#416=COLOUR_RGB('',0.0,1.0,1.0);
#417=CARTESIAN_POINT('',(25.0,-3.061516E-015,-176.1825030024));
#418=VECTOR('',#534,16.4174969975995);
#419=DRAUGHTING_PRE_DEFINED_CURVE_FONT('continuous');
#420=COLOUR_RGB('',0.0,1.0,1.0);
#421=CARTESIAN_POINT('',(18.5,-2.265522E-015,-185.549999999998));
#422=VECTOR('',#535,16.8151717208002);
#424=DIRECTION('',(0.0,1.0,0.0));
#425=DIRECTION('',(0.0,0.0,-1.0));
#426=DIRECTION('',(1.0,0.0,0.0));
#427=DIRECTION('',(0.0,0.0,-1.0));
#428=SURFACE_STYLE_FILL_AREA(#536);
#429=ORIENTED_EDGE('',*,*,#60,.F.);
#430=ORIENTED_EDGE('',*,*,#116,.F.);
#431=ORIENTED_EDGE('',*,*,#70,.T.);
#432=ORIENTED_EDGE('',*,*,#99,.T.);
#433=CARTESIAN_POINT('',(-22.7494580848657,0.0,-186.97105443691));
#434=DIRECTION('',(-0.0,1.0,0.0));
#435=DIRECTION('',(1.0,0.0,0.0));
#436=SURFACE_STYLE_FILL_AREA(#537);
#437=ORIENTED_EDGE('',*,*,#77,.F.);
#438=CARTESIAN_POINT('',(4.42861293830707,24.6046212619227,0.0));
#439=DIRECTION('',(0.0,0.0,1.0));
#440=DIRECTION('',(-1.0,0.0,0.0));
#441=CARTESIAN_POINT('',(-28.5,0.0,-185.549999999998));
#442=DIRECTION('',(-0.0,1.0,0.0));
#443=DIRECTION('',(0.24096837362948,0.0,0.970532968481938));
#444=DIRECTION('',(0.0,0.0,1.0));
#445=SURFACE_STYLE_FILL_AREA(#538);
#446=ORIENTED_EDGE('',*,*,#120,.F.);
#447=ORIENTED_EDGE('',*,*,#56,.F.);
#448=ORIENTED_EDGE('',*,*,#70,.F.);
#449=CARTESIAN_POINT('',(-28.5,0.0,-185.549999999998));
#450=DIRECTION('',(0.0,-1.0,0.0));
#451=DIRECTION('',(0.24096837362948,0.0,0.970532968481938));
#452=CARTESIAN_POINT('',(0.0,0.0,0.0));
#453=DIRECTION('',(0.0,0.0,-1.0));
#454=DIRECTION('',(-1.0,0.0,0.0));
#455=DIRECTION('',(1.0,0.0,0.0));
#456=SURFACE_STYLE_FILL_AREA(#539);
#457=ORIENTED_EDGE('',*,*,#118,.F.);
#458=ORIENTED_EDGE('',*,*,#62,.F.);
#459=ORIENTED_EDGE('',*,*,#99,.F.);
#460=ORIENTED_EDGE('',*,*,#56,.T.);
#461=ORIENTED_EDGE('',*,*,#72,.F.);
#462=CARTESIAN_POINT('',(-18.5,0.0,-196.25));
#463=DIRECTION('',(1.0,0.0,0.0));
#464=DIRECTION('',(0.0,1.0,0.0));
#465=DIRECTION('',(0.0,-1.0,0.0));
#466=SURFACE_STYLE_FILL_AREA(#540);
#467=ORIENTED_EDGE('',*,*,#84,.F.);
#468=ORIENTED_EDGE('',*,*,#58,.F.);
#469=ORIENTED_EDGE('',*,*,#129,.T.);
#470=ORIENTED_EDGE('',*,*,#95,.F.);
#471=CARTESIAN_POINT('',(18.5,-2.265522E-015,-196.25));
#472=DIRECTION('',(-1.0,0.0,0.0));
#473=DIRECTION('',(0.0,0.0,1.0));
#474=SURFACE_STYLE_FILL_AREA(#541);
#475=ORIENTED_EDGE('',*,*,#125,.F.);
#476=ORIENTED_EDGE('',*,*,#129,.F.);
#477=ORIENTED_EDGE('',*,*,#97,.F.);
#478=CARTESIAN_POINT('',(28.5,-3.490128E-015,-185.549999999998));
#479=DIRECTION('',(1.22460602020353E-016,1.0,-8.13724909146325E-024));
#480=DIRECTION('',(-0.24096837362948,2.950914E-017,0.970532968481938));
#481=SURFACE_STYLE_FILL_AREA(#542);
#482=ORIENTED_EDGE('',*,*,#84,.T.);
#483=ORIENTED_EDGE('',*,*,#104,.F.);
#484=ORIENTED_EDGE('',*,*,#60,.T.);
#485=ORIENTED_EDGE('',*,*,#79,.T.);
#486=CARTESIAN_POINT('',(-7.400328E-016,-8.7677269350515,-192.4));
#487=DIRECTION('',(0.0,0.0,1.0));
#488=DIRECTION('',(1.0,0.0,0.0));
#489=DIRECTION('',(0.0,0.0,1.0));
#490=CARTESIAN_POINT('',(28.5,-3.490128E-015,-185.549999999998));
#491=DIRECTION('',(-7.11077072749342E-018,-1.0,2.86395929300789E-017));
#492=DIRECTION('',(-0.24096837362948,2.950914E-017,0.970532968481938));
#493=DIRECTION('',(0.0,0.0,-1.0));
#494=SURFACE_STYLE_FILL_AREA(#543);
#495=ORIENTED_EDGE('',*,*,#118,.T.);
#496=ORIENTED_EDGE('',*,*,#109,.F.);
#497=ORIENTED_EDGE('',*,*,#111,.T.);
#498=CARTESIAN_POINT('',(0.0,0.0,-192.6));
#499=DIRECTION('',(0.0,0.0,1.0));
#500=DIRECTION('',(1.0,0.0,0.0));
#501=CARTESIAN_POINT('',(0.0,0.0,-192.4));
#502=DIRECTION('',(0.0,0.0,1.0));
#503=DIRECTION('',(-1.0,0.0,0.0));
#504=SURFACE_STYLE_FILL_AREA(#544);
#505=CARTESIAN_POINT('',(0.0,0.0,-192.6));
#506=DIRECTION('',(0.0,0.0,1.0));
#507=DIRECTION('',(-1.0,0.0,0.0));
#508=DIRECTION('',(-1.0,0.0,0.0));
#509=SURFACE_STYLE_FILL_AREA(#545);
#510=ORIENTED_EDGE('',*,*,#79,.F.);
#511=ORIENTED_EDGE('',*,*,#62,.T.);
#512=ORIENTED_EDGE('',*,*,#111,.F.);
#513=ORIENTED_EDGE('',*,*,#127,.F.);
#514=ORIENTED_EDGE('',*,*,#97,.T.);
#515=ORIENTED_EDGE('',*,*,#58,.T.);
#516=CARTESIAN_POINT('',(-25.0,0.0,-192.6));
#517=DIRECTION('',(-0.0,1.0,0.0));
#518=DIRECTION('',(1.0,0.0,0.0));
#519=DIRECTION('',(0.0,0.0,-1.0));
#520=DIRECTION('',(0.0,1.0,0.0));
#521=SURFACE_STYLE_FILL_AREA(#546);
#522=ORIENTED_EDGE('',*,*,#77,.T.);
#523=ORIENTED_EDGE('',*,*,#127,.T.);
#524=ORIENTED_EDGE('',*,*,#109,.T.);
#525=ORIENTED_EDGE('',*,*,#72,.T.);
#526=ORIENTED_EDGE('',*,*,#120,.T.);
#527=ORIENTED_EDGE('',*,*,#116,.T.);
#528=ORIENTED_EDGE('',*,*,#104,.T.);
#529=ORIENTED_EDGE('',*,*,#95,.T.);
#530=ORIENTED_EDGE('',*,*,#125,.T.);
#531=CARTESIAN_POINT('',(0.0,0.0,-163.0));
#532=DIRECTION('',(0.0,0.0,1.0));
#533=DIRECTION('',(-1.0,0.0,0.0));
#534=DIRECTION('',(0.0,0.0,-1.0));
#535=DIRECTION('',(0.0,-1.0,0.0));
#536=FILL_AREA_STYLE('',(#547));
#537=FILL_AREA_STYLE('',(#548));
#538=FILL_AREA_STYLE('',(#549));
#539=FILL_AREA_STYLE('',(#550));
#540=FILL_AREA_STYLE('',(#551));
#541=FILL_AREA_STYLE('',(#552));
#542=FILL_AREA_STYLE('',(#553));
#543=FILL_AREA_STYLE('',(#554));
#544=FILL_AREA_STYLE('',(#555));
#545=FILL_AREA_STYLE('',(#556));
#546=FILL_AREA_STYLE('',(#557));
#547=FILL_AREA_STYLE_COLOUR('',#558);
#548=FILL_AREA_STYLE_COLOUR('',#559);
#549=FILL_AREA_STYLE_COLOUR('',#560);
#550=FILL_AREA_STYLE_COLOUR('',#561);
#551=FILL_AREA_STYLE_COLOUR('',#562);
#552=FILL_AREA_STYLE_COLOUR('',#563);
#553=FILL_AREA_STYLE_COLOUR('',#564);
#554=FILL_AREA_STYLE_COLOUR('',#565);
#555=FILL_AREA_STYLE_COLOUR('',#566);
#556=FILL_AREA_STYLE_COLOUR('',#567);
#557=FILL_AREA_STYLE_COLOUR('',#568);
#558=COLOUR_RGB('',0.0,1.0,1.0);
#559=COLOUR_RGB('',0.0,1.0,1.0);
#560=COLOUR_RGB('',0.0,1.0,1.0);
#561=COLOUR_RGB('',0.0,1.0,1.0);
#562=COLOUR_RGB('',0.0,1.0,1.0);
#563=COLOUR_RGB('',0.0,1.0,1.0);
#564=COLOUR_RGB('',0.0,1.0,1.0);
#565=COLOUR_RGB('',0.0,1.0,1.0);
#566=COLOUR_RGB('',0.0,1.0,1.0);
#567=COLOUR_RGB('',0.0,1.0,1.0);
#568=COLOUR_RGB('',0.0,1.0,1.0);
ENDSEC;
END-ISO-10303-21;
