ISO-10303-21;
HEADER;
FILE_DESCRIPTION((''),'1');
FILE_NAME('U:/Translate/BIG-HP/\X2\30C030A630F330ED30FC30C930C730FC30BF\X0\/201309/\X2\5207524A5DE55177\X0\/\X2\FF74FF9DFF84FF9EFF90FF9952A05DE5\X0\/03_\X2\FF7AFF9DFF80FF78FF84FF78FF9EFF98FF6FFF8CFF9F\X0\CG/11_\X2\FF8DFF6FFF84FF9E\X0\/02_FCM\X2\578B\X0\/CG31-FCM32112-43.stp','2013-10-22T02:29:42',(''),(''),'Spatial Interop R18','Kubotek KeyCreator V8.5.1 (14335)',' ');
FILE_SCHEMA(('CONFIG_CONTROL_DESIGN'));
ENDSEC;
DATA;
#1=DESIGN_CONTEXT('',#27,'design');
#2=APPLICATION_PROTOCOL_DEFINITION('INTERNATIONAL STANDARD','config_control_design',1994,#27);
#3=PRODUCT_CATEGORY_RELATIONSHIP('NONE','NONE',#28,#29);
#4=DATE_AND_TIME(#30,#31);
#5=DATE_TIME_ROLE('creation_date');
#6=DATE_TIME_ROLE('classification_date');
#7=PERSON_AND_ORGANIZATION_ROLE('creator');
#8=PERSON_AND_ORGANIZATION_ROLE('design_supplier');
#9=PERSON_AND_ORGANIZATION_ROLE('classification_officer');
#10=PERSON_AND_ORGANIZATION_ROLE('design_owner');
#11=APPROVAL_PERSON_ORGANIZATION(#32,#33,#34);
#12=APPROVAL_DATE_TIME(#4,#33);
#13=CC_DESIGN_APPROVAL(#33,(#35,#36,#37));
#14=CC_DESIGN_DATE_AND_TIME_ASSIGNMENT(#4,#5,(#37));
#15=CC_DESIGN_DATE_AND_TIME_ASSIGNMENT(#4,#6,(#35));
#16=CC_DESIGN_PERSON_AND_ORGANIZATION_ASSIGNMENT(#32,#10,(#38));
#17=CC_DESIGN_PERSON_AND_ORGANIZATION_ASSIGNMENT(#32,#7,(#37));
#18=CC_DESIGN_PERSON_AND_ORGANIZATION_ASSIGNMENT(#32,#7,(#36));
#19=CC_DESIGN_PERSON_AND_ORGANIZATION_ASSIGNMENT(#32,#8,(#36));
#20=CC_DESIGN_SECURITY_CLASSIFICATION(#35,(#36));
#21=CC_DESIGN_PERSON_AND_ORGANIZATION_ASSIGNMENT(#32,#9,(#35));
#22=SHAPE_DEFINITION_REPRESENTATION(#39,#40);
#23= (GEOMETRIC_REPRESENTATION_CONTEXT(3)GLOBAL_UNCERTAINTY_ASSIGNED_CONTEXT((#43))GLOBAL_UNIT_ASSIGNED_CONTEXT((#45,#46,#47))REPRESENTATION_CONTEXT('NONE','WORKSPACE'));
#27=APPLICATION_CONTEXT('CONFIGURATION CONTROLLED 3D DESIGNS OF MECHANICAL PARTS AND ASSEMBLIES');
#28=PRODUCT_CATEGORY('part','NONE');
#29=PRODUCT_RELATED_PRODUCT_CATEGORY('detail',' ',(#38));
#30=CALENDAR_DATE(2013,22,9);
#31=LOCAL_TIME(11,29,42.0,#49);
#32=PERSON_AND_ORGANIZATION(#50,#51);
#33=APPROVAL(#52,'SOLID MODEL');
#34=APPROVAL_ROLE('APPROVED');
#35=SECURITY_CLASSIFICATION('','',#53);
#36=PRODUCT_DEFINITION_FORMATION_WITH_SPECIFIED_SOURCE(' ','NONE',#38,.NOT_KNOWN.);
#37=PRODUCT_DEFINITION('NONE','NONE',#36,#1);
#38=PRODUCT('1','1','PART-1-DESC',(#54));
#39=PRODUCT_DEFINITION_SHAPE('NONE','NONE',#37);
#40=ADVANCED_BREP_SHAPE_REPRESENTATION('1',(#55,#56),#23);
#43=UNCERTAINTY_MEASURE_WITH_UNIT(LENGTH_MEASURE(1.0E-006),#45,'','');
#45= (CONVERSION_BASED_UNIT('MILLIMETRE',#59)LENGTH_UNIT()NAMED_UNIT(#62));
#46= (NAMED_UNIT(#64)PLANE_ANGLE_UNIT()SI_UNIT($,.RADIAN.));
#47= (NAMED_UNIT(#64)SOLID_ANGLE_UNIT()SI_UNIT($,.STERADIAN.));
#49=COORDINATED_UNIVERSAL_TIME_OFFSET(9,0,.AHEAD.);
#50=PERSON('','UNSPECIFIED',$,$,$,$);
#51=ORGANIZATION('UNSPECIFIED','UNSPECIFIED','UNSPECIFIED');
#52=APPROVAL_STATUS('approved');
#53=SECURITY_CLASSIFICATION_LEVEL('unclassified');
#54=MECHANICAL_CONTEXT('',#27,'mechanical');
#55=MANIFOLD_SOLID_BREP('1',#70);
#56=AXIS2_PLACEMENT_3D('',#71,#72,#73);
#59=LENGTH_MEASURE_WITH_UNIT(LENGTH_MEASURE(1.0),#74);
#62=DIMENSIONAL_EXPONENTS(1.0,0.0,0.0,0.0,0.0,0.0,0.0);
#64=DIMENSIONAL_EXPONENTS(0.0,0.0,0.0,0.0,0.0,0.0,0.0);
#70=CLOSED_SHELL('',(#75,#76,#77,#78,#79,#80,#81,#82,#83));
#71=CARTESIAN_POINT('',(0.0,0.0,0.0));
#72=DIRECTION('',(0.0,0.0,1.0));
#73=DIRECTION('',(1.0,0.0,0.0));
#74= (NAMED_UNIT(#62)LENGTH_UNIT()SI_UNIT(.MILLI.,.METRE.));
#75=ADVANCED_FACE('',(#85,#86),#87,.F.);
#76=ADVANCED_FACE('',(#88,#89),#90,.T.);
#77=ADVANCED_FACE('',(#91,#92),#93,.T.);
#78=ADVANCED_FACE('',(#94,#95),#96,.T.);
#79=ADVANCED_FACE('',(#97,#98),#99,.F.);
#80=ADVANCED_FACE('',(#100,#101),#102,.T.);
#81=ADVANCED_FACE('',(#103,#104),#105,.F.);
#82=ADVANCED_FACE('',(#106,#107),#108,.T.);
#83=ADVANCED_FACE('',(#109,#110),#111,.T.);
#85=FACE_BOUND('',#112,.T.);
#86=FACE_BOUND('',#113,.T.);
#87=CONICAL_SURFACE('',#114,3.9998464542998,1.57079248813636);
#88=FACE_BOUND('',#115,.T.);
#89=FACE_BOUND('',#116,.T.);
#90=CONICAL_SURFACE('',#117,7.99972553719716,3.83866175535863E-006);
#91=FACE_BOUND('',#118,.T.);
#92=FACE_BOUND('',#119,.T.);
#93=CONICAL_SURFACE('',#120,8.47496352033551,0.0499622346429857);
#94=FACE_BOUND('',#121,.T.);
#95=FACE_BOUND('',#122,.T.);
#96=CONICAL_SURFACE('',#123,8.95016696691738,3.84184187318984E-006);
#97=FACE_BOUND('',#124,.T.);
#98=FACE_BOUND('',#125,.T.);
#99=CONICAL_SURFACE('',#126,12.2249999989343,1.57079248813636);
#100=FACE_BOUND('',#127,.T.);
#101=FACE_BOUND('',#128,.T.);
#102=CONICAL_SURFACE('',#129,15.4998934598292,3.83866175535863E-006);
#103=FACE_BOUND('',#130,.T.);
#104=FACE_BOUND('',#131,.T.);
#105=CONICAL_SURFACE('',#132,15.7499519800757,1.57079248813636);
#106=FACE_BOUND('',#133,.T.);
#107=FACE_BOUND('',#134,.T.);
#108=CONICAL_SURFACE('',#135,15.9999759896426,3.83866175535863E-006);
#109=FACE_BOUND('',#136,.T.);
#110=FACE_BOUND('',#137,.T.);
#111=CONICAL_SURFACE('',#138,7.99999999994106,1.57079248813636);
#112=EDGE_LOOP('',(#139));
#113=VERTEX_LOOP('',#140);
#114=AXIS2_PLACEMENT_3D('',#141,#142,#143);
#115=EDGE_LOOP('',(#144));
#116=EDGE_LOOP('',(#145));
#117=AXIS2_PLACEMENT_3D('',#146,#147,#148);
#118=EDGE_LOOP('',(#149));
#119=EDGE_LOOP('',(#150));
#120=AXIS2_PLACEMENT_3D('',#151,#152,#153);
#121=EDGE_LOOP('',(#154));
#122=EDGE_LOOP('',(#155));
#123=AXIS2_PLACEMENT_3D('',#156,#157,#158);
#124=EDGE_LOOP('',(#159));
#125=EDGE_LOOP('',(#160));
#126=AXIS2_PLACEMENT_3D('',#161,#162,#163);
#127=EDGE_LOOP('',(#164));
#128=EDGE_LOOP('',(#165));
#129=AXIS2_PLACEMENT_3D('',#166,#167,#168);
#130=EDGE_LOOP('',(#169));
#131=EDGE_LOOP('',(#170));
#132=AXIS2_PLACEMENT_3D('',#171,#172,#173);
#133=EDGE_LOOP('',(#174));
#134=EDGE_LOOP('',(#175));
#135=AXIS2_PLACEMENT_3D('',#176,#177,#178);
#136=VERTEX_LOOP('',#179);
#137=EDGE_LOOP('',(#180));
#138=AXIS2_PLACEMENT_3D('',#181,#182,#183);
#139=ORIENTED_EDGE('',*,*,#184,.F.);
#140=VERTEX_POINT('',#185);
#141=CARTESIAN_POINT('',(-4.89858437595279E-015,0.000307092506091177,79.9999539355082));
#142=DIRECTION('',(-6.12323399569165E-017,3.83865853643462E-006,0.999999999992632));
#143=DIRECTION('',(2.35050044478389E-022,0.999999999992632,-3.83865853643462E-006));
#144=ORIENTED_EDGE('',*,*,#186,.F.);
#145=ORIENTED_EDGE('',*,*,#184,.T.);
#146=CARTESIAN_POINT('',(-4.37811042648692E-015,0.000274463967470658,71.4999692896781));
#147=DIRECTION('',(6.12323399569165E-017,-3.83865853643462E-006,-0.999999999992632));
#148=DIRECTION('',(2.35050044478389E-022,0.999999999992632,-3.83865853643462E-006));
#149=ORIENTED_EDGE('',*,*,#187,.F.);
#150=ORIENTED_EDGE('',*,*,#186,.T.);
#151=CARTESIAN_POINT('',(-3.27572161062223E-015,0.000205355155991847,53.4965936775063));
#152=DIRECTION('',(6.12323399569165E-017,-3.83865853643462E-006,-0.999999999992632));
#153=DIRECTION('',(2.35050044478389E-022,0.999999999992632,-3.83865853643462E-006));
#154=ORIENTED_EDGE('',*,*,#188,.F.);
#155=ORIENTED_EDGE('',*,*,#187,.T.);
#156=CARTESIAN_POINT('',(-2.66339832274514E-015,0.000166968577629483,43.49659550165));
#157=DIRECTION('',(-6.12323399569165E-017,3.83865853643462E-006,0.999999999992632));
#158=DIRECTION('',(2.35050044478389E-022,0.999999999992632,-3.83865853643462E-006));
#159=ORIENTED_EDGE('',*,*,#189,.F.);
#160=ORIENTED_EDGE('',*,*,#188,.T.);
#161=CARTESIAN_POINT('',(-2.63298973085289E-015,0.00016506226144215,42.999985509064));
#162=DIRECTION('',(-6.12323399569165E-017,3.83865853643462E-006,0.999999999992632));
#163=DIRECTION('',(2.35050044478389E-022,0.999999999992632,-3.83865853643462E-006));
#164=ORIENTED_EDGE('',*,*,#190,.F.);
#165=ORIENTED_EDGE('',*,*,#189,.T.);
#166=CARTESIAN_POINT('',(-1.69949439141594E-015,0.000106541390673976,27.7548496856269));
#167=DIRECTION('',(6.12323399569165E-017,-3.83865853643462E-006,-0.999999999992632));
#168=DIRECTION('',(2.35050044478389E-022,0.999999999992632,-3.83865853643462E-006));
#169=ORIENTED_EDGE('',*,*,#191,.F.);
#170=ORIENTED_EDGE('',*,*,#190,.T.);
#171=CARTESIAN_POINT('',(-7.65998340991405E-016,4.80204753339543E-005,12.5097022508812));
#172=DIRECTION('',(-6.12323399569165E-017,3.83865853643462E-006,0.999999999992632));
#173=DIRECTION('',(2.35050044478389E-022,0.999999999992632,-3.83865853643462E-006));
#174=ORIENTED_EDGE('',*,*,#192,.F.);
#175=ORIENTED_EDGE('',*,*,#191,.T.);
#176=CARTESIAN_POINT('',(-3.82999199876958E-016,2.40102395088895E-005,6.25485160527291));
#177=DIRECTION('',(6.12323399569165E-017,-3.83865853643462E-006,-0.999999999992632));
#178=DIRECTION('',(2.35050044478389E-022,0.999999999992632,-3.83865853643462E-006));
#179=VERTEX_POINT('',#193);
#180=ORIENTED_EDGE('',*,*,#192,.T.);
#181=CARTESIAN_POINT('',(1.88040034972637E-021,-1.17882394496646E-010,-3.0709268187934E-005));
#182=DIRECTION('',(-6.12323399569165E-017,3.83865853643462E-006,0.999999999992632));
#183=DIRECTION('',(2.35050044478389E-022,0.999999999992632,-3.83865853643462E-006));
#184=EDGE_CURVE('',#194,#194,#195,.T.);
#185=CARTESIAN_POINT('',(-4.8985834357887E-015,0.000307092447152242,79.9999385814634));
#186=EDGE_CURVE('',#196,#196,#197,.T.);
#187=EDGE_CURVE('',#198,#198,#199,.T.);
#188=EDGE_CURVE('',#200,#200,#201,.T.);
#189=EDGE_CURVE('',#202,#202,#203,.T.);
#190=EDGE_CURVE('',#204,#204,#205,.T.);
#191=EDGE_CURVE('',#206,#206,#207,.T.);
#192=EDGE_CURVE('',#208,#208,#209,.T.);
#193=CARTESIAN_POINT('',(3.76080070024159E-021,-2.35766980368044E-010,-6.14185363900788E-005));
#194=VERTEX_POINT('',#210);
#195=CIRCLE('',#211,7.9996929085996);
#196=VERTEX_POINT('',#212);
#197=CIRCLE('',#213,7.99975816579472);
#198=VERTEX_POINT('',#214);
#199=CIRCLE('',#215,8.9501688748763);
#200=VERTEX_POINT('',#216);
#201=CIRCLE('',#217,8.95016505895845);
#202=VERTEX_POINT('',#218);
#203=CIRCLE('',#219,15.4998349389102);
#204=VERTEX_POINT('',#220);
#205=CIRCLE('',#221,15.4999519807482);
#206=VERTEX_POINT('',#222);
#207=CIRCLE('',#223,15.9999519794031);
#208=VERTEX_POINT('',#224);
#209=CIRCLE('',#225,15.9999999998821);
#210=CARTESIAN_POINT('',(-4.8985834357887E-015,8.00000000110569,79.9999385814634));
#211=AXIS2_PLACEMENT_3D('',#226,#227,#228);
#212=CARTESIAN_POINT('',(-3.85763365651345E-015,8.00000000110569,62.9999385814634));
#213=AXIS2_PLACEMENT_3D('',#229,#230,#231);
#214=CARTESIAN_POINT('',(-2.6938055806499E-015,8.95033774975244,43.993183708567));
#215=AXIS2_PLACEMENT_3D('',#232,#233,#234);
#216=CARTESIAN_POINT('',(-2.6329868573661E-015,8.95033012110569,42.9999385814634));
#217=AXIS2_PLACEMENT_3D('',#235,#236,#237);
#218=CARTESIAN_POINT('',(-2.6329868573661E-015,15.5000000011057,42.9999385814634));
#219=AXIS2_PLACEMENT_3D('',#238,#239,#240);
#220=CARTESIAN_POINT('',(-7.65994638964492E-016,15.5000000011057,12.5096417921936));
#221=AXIS2_PLACEMENT_3D('',#241,#242,#243);
#222=CARTESIAN_POINT('',(-7.65994638964491E-016,15.9999999997642,12.5096417921936));
#223=AXIS2_PLACEMENT_3D('',#244,#245,#246);
#224=CARTESIAN_POINT('',(3.76080071168008E-021,15.9999999997642,-6.14185365819253E-005));
#225=AXIS2_PLACEMENT_3D('',#247,#248,#249);
#226=CARTESIAN_POINT('',(-4.89858531611688E-015,0.000307092565030112,79.9999692895529));
#227=DIRECTION('',(6.12323399569165E-017,-3.83865853643462E-006,-0.999999999992632));
#228=DIRECTION('',(2.35050044478389E-022,0.999999999992632,-3.83865853643462E-006));
#229=CARTESIAN_POINT('',(-3.85763553685696E-015,0.000241835369911204,62.9999692898034));
#230=DIRECTION('',(6.12323399569165E-017,-3.83865853643462E-006,-0.999999999992632));
#231=DIRECTION('',(2.35050044478389E-022,0.999999999992632,-3.83865853643462E-006));
#232=CARTESIAN_POINT('',(-2.69380768438749E-015,0.000168874942072489,43.9932180652091));
#233=DIRECTION('',(6.12323399569165E-017,-3.83865853643462E-006,-0.999999999992632));
#234=DIRECTION('',(2.35050044478389E-022,0.999999999992632,-3.83865853643462E-006));
#235=CARTESIAN_POINT('',(-2.63298896110279E-015,0.000165062213186476,42.9999729380909));
#236=DIRECTION('',(6.12323399569165E-017,-3.83865853643462E-006,-0.999999999992632));
#237=DIRECTION('',(2.35050044478389E-022,0.999999999992632,-3.83865853643462E-006));
#238=CARTESIAN_POINT('',(-2.63299050060299E-015,0.000165062309697823,42.9999980800371));
#239=DIRECTION('',(6.12323399569165E-017,-3.83865853643462E-006,-0.999999999992632));
#240=DIRECTION('',(2.35050044478389E-022,0.999999999992632,-3.83865853643462E-006));
#241=CARTESIAN_POINT('',(-7.65998282228895E-016,4.80204716501295E-005,12.5097012912166));
#242=DIRECTION('',(6.12323399569165E-017,-3.83865853643462E-006,-0.999999999992632));
#243=DIRECTION('',(2.35050044478389E-022,0.999999999992632,-3.83865853643462E-006));
#244=CARTESIAN_POINT('',(-7.65998399753915E-016,4.80204790177791E-005,12.5097032105458));
#245=DIRECTION('',(6.12323399569165E-017,-3.83865853643462E-006,-0.999999999992632));
#246=DIRECTION('',(2.35050044478389E-022,0.999999999992632,-3.83865853643462E-006));
#247=CARTESIAN_POINT('',(0.0,0.0,0.0));
#248=DIRECTION('',(6.12323399569165E-017,-3.83865853643462E-006,-0.999999999992632));
#249=DIRECTION('',(2.35050044478389E-022,0.999999999992632,-3.83865853643462E-006));
ENDSEC;
END-ISO-10303-21;
