ISO-10303-21;
HEADER;
FILE_DESCRIPTION((''),'1');
FILE_NAME('T:/02_3D_Field-HP\X2\FF71FF6FFF8CFF9F5916\X0\/02_Step_Field-HP\X2\FF71FF6FFF8CFF9F5916\X0\/66_\X2\FF71FF78FF7EFF7BFF98FF70\X0\/C16_D.stp','2021-11-03T00:33:54',(''),(''),'Spatial Interop R21 SP3','Kubotek KeyCreator 2011 V10.0.2 (22737)',' ');
FILE_SCHEMA(('automotive_design'));
ENDSEC;
DATA;
#1=MECHANICAL_DESIGN_GEOMETRIC_PRESENTATION_REPRESENTATION(' ',(#10,#11,#12,#13,#14,#15,#16,#17,#18,#19,#20,#21,#22,#23,#24,#25,#26,#27),#6);
#2=PRODUCT_DEFINITION_CONTEXT('',#28,'design');
#3=APPLICATION_PROTOCOL_DEFINITION('INTERNATIONAL STANDARD','automotive_design',1994,#28);
#4=PRODUCT_CATEGORY_RELATIONSHIP('NONE','NONE',#29,#30);
#5=SHAPE_DEFINITION_REPRESENTATION(#31,#32);
#6= (GEOMETRIC_REPRESENTATION_CONTEXT(3)GLOBAL_UNCERTAINTY_ASSIGNED_CONTEXT((#35))GLOBAL_UNIT_ASSIGNED_CONTEXT((#37,#38,#39))REPRESENTATION_CONTEXT('NONE','WORKSPACE'));
#10=STYLED_ITEM('',(#41),#42);
#11=STYLED_ITEM('',(#43,#44),#45);
#12=STYLED_ITEM('',(#46),#47);
#13=STYLED_ITEM('',(#48,#49),#50);
#14=STYLED_ITEM('',(#51,#52),#53);
#15=STYLED_ITEM('',(#54),#55);
#16=STYLED_ITEM('',(#56),#57);
#17=STYLED_ITEM('',(#58),#59);
#18=STYLED_ITEM('',(#60,#61),#62);
#19=STYLED_ITEM('',(#63,#64),#65);
#20=STYLED_ITEM('',(#66),#67);
#21=STYLED_ITEM('',(#68,#69),#70);
#22=STYLED_ITEM('',(#71,#72),#73);
#23=STYLED_ITEM('',(#74,#75),#76);
#24=STYLED_ITEM('',(#77),#78);
#25=STYLED_ITEM('',(#79,#80),#81);
#26=STYLED_ITEM('',(#82,#83),#84);
#27=STYLED_ITEM('',(#85),#86);
#28=APPLICATION_CONTEXT(' ');
#29=PRODUCT_CATEGORY('part','NONE');
#30=PRODUCT_RELATED_PRODUCT_CATEGORY('detail',' ',(#87));
#31=PRODUCT_DEFINITION_SHAPE('NONE','NONE',#88);
#32=ADVANCED_BREP_SHAPE_REPRESENTATION('Unnamed[1]',(#45,#89),#6);
#35=UNCERTAINTY_MEASURE_WITH_UNIT(LENGTH_MEASURE(1.0E-006),#37,'','');
#37= (CONVERSION_BASED_UNIT('MILLIMETRE',#92)LENGTH_UNIT()NAMED_UNIT(#95));
#38= (NAMED_UNIT(#97)PLANE_ANGLE_UNIT()SI_UNIT($,.RADIAN.));
#39= (NAMED_UNIT(#97)SOLID_ANGLE_UNIT()SI_UNIT($,.STERADIAN.));
#41=PRESENTATION_STYLE_ASSIGNMENT((#103));
#42=EDGE_CURVE('Unnamed[1]',#104,#104,#105,.T.);
#43=PRESENTATION_STYLE_ASSIGNMENT((#106));
#44=PRESENTATION_STYLE_ASSIGNMENT((#107));
#45=MANIFOLD_SOLID_BREP('Unnamed[1]',#108);
#46=PRESENTATION_STYLE_ASSIGNMENT((#109));
#47=EDGE_CURVE('Unnamed[1]',#110,#110,#111,.T.);
#48=PRESENTATION_STYLE_ASSIGNMENT((#112));
#49=PRESENTATION_STYLE_ASSIGNMENT((#113));
#50=ADVANCED_FACE('Unnamed[1]',(#114,#115),#116,.T.);
#51=PRESENTATION_STYLE_ASSIGNMENT((#117));
#52=PRESENTATION_STYLE_ASSIGNMENT((#118));
#53=ADVANCED_FACE('Unnamed[1]',(#119,#120),#121,.T.);
#54=PRESENTATION_STYLE_ASSIGNMENT((#122));
#55=EDGE_CURVE('Unnamed[1]',#123,#123,#124,.T.);
#56=PRESENTATION_STYLE_ASSIGNMENT((#125));
#57=EDGE_CURVE('Unnamed[1]',#126,#126,#127,.T.);
#58=PRESENTATION_STYLE_ASSIGNMENT((#128));
#59=EDGE_CURVE('Unnamed[1]',#129,#129,#130,.T.);
#60=PRESENTATION_STYLE_ASSIGNMENT((#131));
#61=PRESENTATION_STYLE_ASSIGNMENT((#132));
#62=ADVANCED_FACE('Unnamed[1]',(#133,#134),#135,.T.);
#63=PRESENTATION_STYLE_ASSIGNMENT((#136));
#64=PRESENTATION_STYLE_ASSIGNMENT((#137));
#65=ADVANCED_FACE('Unnamed[1]',(#138,#139),#140,.T.);
#66=PRESENTATION_STYLE_ASSIGNMENT((#141));
#67=EDGE_CURVE('Unnamed[1]',#142,#142,#143,.T.);
#68=PRESENTATION_STYLE_ASSIGNMENT((#144));
#69=PRESENTATION_STYLE_ASSIGNMENT((#145));
#70=ADVANCED_FACE('Unnamed[1]',(#146),#147,.T.);
#71=PRESENTATION_STYLE_ASSIGNMENT((#148));
#72=PRESENTATION_STYLE_ASSIGNMENT((#149));
#73=ADVANCED_FACE('Unnamed[1]',(#150,#151),#152,.T.);
#74=PRESENTATION_STYLE_ASSIGNMENT((#153));
#75=PRESENTATION_STYLE_ASSIGNMENT((#154));
#76=ADVANCED_FACE('Unnamed[1]',(#155,#156),#157,.T.);
#77=PRESENTATION_STYLE_ASSIGNMENT((#158));
#78=EDGE_CURVE('Unnamed[1]',#159,#159,#160,.T.);
#79=PRESENTATION_STYLE_ASSIGNMENT((#161));
#80=PRESENTATION_STYLE_ASSIGNMENT((#162));
#81=ADVANCED_FACE('Unnamed[1]',(#163,#164),#165,.T.);
#82=PRESENTATION_STYLE_ASSIGNMENT((#166));
#83=PRESENTATION_STYLE_ASSIGNMENT((#167));
#84=ADVANCED_FACE('Unnamed[1]',(#168),#169,.T.);
#85=PRESENTATION_STYLE_ASSIGNMENT((#170));
#86=EDGE_CURVE('Unnamed[1]',#171,#171,#172,.T.);
#87=PRODUCT('Unnamed[1]','Unnamed[1]','PART-Unnamed[1]-DESC',(#173));
#88=PRODUCT_DEFINITION('NONE','NONE',#174,#2);
#89=AXIS2_PLACEMENT_3D('',#175,#176,#177);
#92=LENGTH_MEASURE_WITH_UNIT(LENGTH_MEASURE(1.0),#178);
#95=DIMENSIONAL_EXPONENTS(1.0,0.0,0.0,0.0,0.0,0.0,0.0);
#97=DIMENSIONAL_EXPONENTS(0.0,0.0,0.0,0.0,0.0,0.0,0.0);
#103=CURVE_STYLE('',#179,POSITIVE_LENGTH_MEASURE(1000.0),#180);
#104=VERTEX_POINT('',#181);
#105=CIRCLE('',#182,10.5);
#106=SURFACE_STYLE_USAGE(.BOTH.,#183);
#107=CURVE_STYLE('',#184,POSITIVE_LENGTH_MEASURE(1000.0),#185);
#108=CLOSED_SHELL('',(#70,#81,#62,#76,#53,#65,#73,#50,#84));
#109=CURVE_STYLE('',#186,POSITIVE_LENGTH_MEASURE(1000.0),#187);
#110=VERTEX_POINT('',#188);
#111=CIRCLE('',#189,10.5);
#112=SURFACE_STYLE_USAGE(.BOTH.,#190);
#113=CURVE_STYLE('',#191,POSITIVE_LENGTH_MEASURE(1000.0),#192);
#114=FACE_BOUND('',#193,.T.);
#115=FACE_BOUND('',#194,.T.);
#116=CONICAL_SURFACE('',#195,10.25,0.785398163397448);
#117=SURFACE_STYLE_USAGE(.BOTH.,#196);
#118=CURVE_STYLE('',#197,POSITIVE_LENGTH_MEASURE(1000.0),#198);
#119=FACE_OUTER_BOUND('',#199,.T.);
#120=FACE_BOUND('',#200,.T.);
#121=PLANE('',#201);
#122=CURVE_STYLE('',#202,POSITIVE_LENGTH_MEASURE(1000.0),#203);
#123=VERTEX_POINT('',#204);
#124=CIRCLE('',#205,7.7);
#125=CURVE_STYLE('',#206,POSITIVE_LENGTH_MEASURE(1000.0),#207);
#126=VERTEX_POINT('',#208);
#127=CIRCLE('',#209,7.7);
#128=CURVE_STYLE('',#210,POSITIVE_LENGTH_MEASURE(1000.0),#211);
#129=VERTEX_POINT('',#212);
#130=CIRCLE('',#213,9.96410161513775);
#131=SURFACE_STYLE_USAGE(.BOTH.,#214);
#132=CURVE_STYLE('',#215,POSITIVE_LENGTH_MEASURE(1000.0),#216);
#133=FACE_BOUND('',#217,.T.);
#134=FACE_OUTER_BOUND('',#218,.T.);
#135=PLANE('',#219);
#136=SURFACE_STYLE_USAGE(.BOTH.,#220);
#137=CURVE_STYLE('',#221,POSITIVE_LENGTH_MEASURE(1000.0),#222);
#138=FACE_BOUND('',#223,.T.);
#139=FACE_BOUND('',#224,.T.);
#140=CONICAL_SURFACE('',#225,10.2320508075689,0.261799387799151);
#141=CURVE_STYLE('',#226,POSITIVE_LENGTH_MEASURE(1000.0),#227);
#142=VERTEX_POINT('',#228);
#143=CIRCLE('',#229,8.0);
#144=SURFACE_STYLE_USAGE(.BOTH.,#230);
#145=CURVE_STYLE('',#231,POSITIVE_LENGTH_MEASURE(1000.0),#232);
#146=FACE_OUTER_BOUND('',#233,.T.);
#147=PLANE('',#234);
#148=SURFACE_STYLE_USAGE(.BOTH.,#235);
#149=CURVE_STYLE('',#236,POSITIVE_LENGTH_MEASURE(1000.0),#237);
#150=FACE_BOUND('',#238,.T.);
#151=FACE_BOUND('',#239,.T.);
#152=CYLINDRICAL_SURFACE('',#240,10.5);
#153=SURFACE_STYLE_USAGE(.BOTH.,#241);
#154=CURVE_STYLE('',#242,POSITIVE_LENGTH_MEASURE(1000.0),#243);
#155=FACE_BOUND('',#244,.T.);
#156=FACE_BOUND('',#245,.T.);
#157=CYLINDRICAL_SURFACE('',#246,7.7);
#158=CURVE_STYLE('',#247,POSITIVE_LENGTH_MEASURE(1000.0),#248);
#159=VERTEX_POINT('',#249);
#160=CIRCLE('',#250,8.0);
#161=SURFACE_STYLE_USAGE(.BOTH.,#251);
#162=CURVE_STYLE('',#252,POSITIVE_LENGTH_MEASURE(1000.0),#253);
#163=FACE_BOUND('',#254,.T.);
#164=FACE_BOUND('',#255,.T.);
#165=CYLINDRICAL_SURFACE('',#256,8.0);
#166=SURFACE_STYLE_USAGE(.BOTH.,#257);
#167=CURVE_STYLE('',#258,POSITIVE_LENGTH_MEASURE(1000.0),#259);
#168=FACE_OUTER_BOUND('',#260,.T.);
#169=PLANE('',#261);
#170=CURVE_STYLE('',#262,POSITIVE_LENGTH_MEASURE(1000.0),#263);
#171=VERTEX_POINT('',#264);
#172=CIRCLE('',#265,10.0);
#173=PRODUCT_CONTEXT('',#28,'mechanical');
#174=PRODUCT_DEFINITION_FORMATION_WITH_SPECIFIED_SOURCE(' ','NONE',#87,.NOT_KNOWN.);
#175=CARTESIAN_POINT('',(0.0,0.0,0.0));
#176=DIRECTION('',(0.0,0.0,1.0));
#177=DIRECTION('',(1.0,0.0,0.0));
#178= (NAMED_UNIT(#95)LENGTH_UNIT()SI_UNIT(.MILLI.,.METRE.));
#179=DRAUGHTING_PRE_DEFINED_CURVE_FONT('continuous');
#180=COLOUR_RGB('',0.0,1.0,0.0);
#181=CARTESIAN_POINT('',(1.22464679914735E-016,10.5,-2.0));
#182=AXIS2_PLACEMENT_3D('',#267,#268,#269);
#183=SURFACE_SIDE_STYLE('',(#270));
#184=DRAUGHTING_PRE_DEFINED_CURVE_FONT('continuous');
#185=COLOUR_RGB('',0.0,1.0,0.0);
#186=DRAUGHTING_PRE_DEFINED_CURVE_FONT('continuous');
#187=COLOUR_RGB('',0.0,1.0,0.0);
#188=CARTESIAN_POINT('',(1.53080849893419E-016,10.5,-2.5));
#189=AXIS2_PLACEMENT_3D('',#271,#272,#273);
#190=SURFACE_SIDE_STYLE('',(#274));
#191=DRAUGHTING_PRE_DEFINED_CURVE_FONT('continuous');
#192=COLOUR_RGB('',0.0,1.0,0.0);
#193=EDGE_LOOP('',(#275));
#194=EDGE_LOOP('',(#276));
#195=AXIS2_PLACEMENT_3D('',#277,#278,#279);
#196=SURFACE_SIDE_STYLE('',(#280));
#197=DRAUGHTING_PRE_DEFINED_CURVE_FONT('continuous');
#198=COLOUR_RGB('',0.0,1.0,0.0);
#199=EDGE_LOOP('',(#281));
#200=EDGE_LOOP('',(#282));
#201=AXIS2_PLACEMENT_3D('',#283,#284,#285);
#202=DRAUGHTING_PRE_DEFINED_CURVE_FONT('continuous');
#203=COLOUR_RGB('',0.0,1.0,0.0);
#204=CARTESIAN_POINT('',(-1.22464679914735E-016,7.7,2.0));
#205=AXIS2_PLACEMENT_3D('',#286,#287,#288);
#206=DRAUGHTING_PRE_DEFINED_CURVE_FONT('continuous');
#207=COLOUR_RGB('',0.0,1.0,0.0);
#208=CARTESIAN_POINT('',(-6.42936576807191E-032,7.7,4.42978035343462E-016));
#209=AXIS2_PLACEMENT_3D('',#289,#290,#291);
#210=DRAUGHTING_PRE_DEFINED_CURVE_FONT('continuous');
#211=COLOUR_RGB('',0.0,1.0,0.0);
#212=CARTESIAN_POINT('',(-8.60776307104499E-032,9.96410161513775,6.20250514935742E-016));
#213=AXIS2_PLACEMENT_3D('',#292,#293,#294);
#214=SURFACE_SIDE_STYLE('',(#295));
#215=DRAUGHTING_PRE_DEFINED_CURVE_FONT('continuous');
#216=COLOUR_RGB('',0.0,1.0,0.0);
#217=EDGE_LOOP('',(#296));
#218=EDGE_LOOP('',(#297));
#219=AXIS2_PLACEMENT_3D('',#298,#299,#300);
#220=SURFACE_SIDE_STYLE('',(#301));
#221=DRAUGHTING_PRE_DEFINED_CURVE_FONT('continuous');
#222=COLOUR_RGB('',0.0,1.0,0.0);
#223=EDGE_LOOP('',(#302));
#224=EDGE_LOOP('',(#303));
#225=AXIS2_PLACEMENT_3D('',#304,#305,#306);
#226=DRAUGHTING_PRE_DEFINED_CURVE_FONT('continuous');
#227=COLOUR_RGB('',0.0,1.0,0.0);
#228=CARTESIAN_POINT('',(-3.00038465791102E-015,7.99999999999999,49.0));
#229=AXIS2_PLACEMENT_3D('',#307,#308,#309);
#230=SURFACE_SIDE_STYLE('',(#310));
#231=DRAUGHTING_PRE_DEFINED_CURVE_FONT('continuous');
#232=COLOUR_RGB('',0.0,1.0,0.0);
#233=EDGE_LOOP('',(#311));
#234=AXIS2_PLACEMENT_3D('',#312,#313,#314);
#235=SURFACE_SIDE_STYLE('',(#315));
#236=DRAUGHTING_PRE_DEFINED_CURVE_FONT('continuous');
#237=COLOUR_RGB('',0.0,1.0,0.0);
#238=EDGE_LOOP('',(#316));
#239=EDGE_LOOP('',(#317));
#240=AXIS2_PLACEMENT_3D('',#318,#319,#320);
#241=SURFACE_SIDE_STYLE('',(#321));
#242=DRAUGHTING_PRE_DEFINED_CURVE_FONT('continuous');
#243=COLOUR_RGB('',0.0,1.0,0.0);
#244=EDGE_LOOP('',(#322));
#245=EDGE_LOOP('',(#323));
#246=AXIS2_PLACEMENT_3D('',#324,#325,#326);
#247=DRAUGHTING_PRE_DEFINED_CURVE_FONT('continuous');
#248=COLOUR_RGB('',0.0,1.0,0.0);
#249=CARTESIAN_POINT('',(-1.22464679914735E-016,8.0,2.0));
#250=AXIS2_PLACEMENT_3D('',#327,#328,#329);
#251=SURFACE_SIDE_STYLE('',(#330));
#252=DRAUGHTING_PRE_DEFINED_CURVE_FONT('continuous');
#253=COLOUR_RGB('',0.0,1.0,0.0);
#254=EDGE_LOOP('',(#331));
#255=EDGE_LOOP('',(#332));
#256=AXIS2_PLACEMENT_3D('',#333,#334,#335);
#257=SURFACE_SIDE_STYLE('',(#336));
#258=DRAUGHTING_PRE_DEFINED_CURVE_FONT('continuous');
#259=COLOUR_RGB('',0.0,1.0,0.0);
#260=EDGE_LOOP('',(#337));
#261=AXIS2_PLACEMENT_3D('',#338,#339,#340);
#262=DRAUGHTING_PRE_DEFINED_CURVE_FONT('continuous');
#263=COLOUR_RGB('',0.0,1.0,0.0);
#264=CARTESIAN_POINT('',(1.83697019872103E-016,10.0,-3.0));
#265=AXIS2_PLACEMENT_3D('',#341,#342,#343);
#267=CARTESIAN_POINT('',(1.22464679914735E-016,3.42388334466503E-016,-2.0));
#268=DIRECTION('',(6.12323399573677E-017,1.03837752434195E-016,-1.0));
#269=DIRECTION('',(-1.11853812882287E-032,1.0,1.03837752434195E-016));
#270=SURFACE_STYLE_FILL_AREA(#344);
#271=CARTESIAN_POINT('',(1.53080849893419E-016,3.94307210683601E-016,-2.5));
#272=DIRECTION('',(6.12323399573677E-017,1.03837752434195E-016,-1.0));
#273=DIRECTION('',(-1.11853812882287E-032,1.0,1.03837752434195E-016));
#274=SURFACE_STYLE_FILL_AREA(#345);
#275=ORIENTED_EDGE('',*,*,#86,.F.);
#276=ORIENTED_EDGE('',*,*,#47,.T.);
#277=CARTESIAN_POINT('',(1.68388934882761E-016,4.2026664879215E-016,-2.75));
#278=DIRECTION('',(-6.12323399573677E-017,-1.03837752434195E-016,1.0));
#279=DIRECTION('',(-1.11853812882287E-032,1.0,1.03837752434195E-016));
#280=SURFACE_STYLE_FILL_AREA(#346);
#281=ORIENTED_EDGE('',*,*,#59,.F.);
#282=ORIENTED_EDGE('',*,*,#57,.T.);
#283=CARTESIAN_POINT('',(-7.51856441955845E-032,8.83205080756888,5.31614275139602E-016));
#284=DIRECTION('',(-6.12323399573677E-017,-7.82970509835065E-017,1.0));
#285=DIRECTION('',(9.62146437425044E-033,-1.0,-7.82970509835065E-017));
#286=CARTESIAN_POINT('',(-1.22464679914735E-016,-7.2962675270278E-017,2.0));
#287=DIRECTION('',(6.12323399573677E-017,1.03837752434195E-016,-1.0));
#288=DIRECTION('',(-1.11853812882287E-032,1.0,1.03837752434195E-016));
#289=CARTESIAN_POINT('',(2.71926214689378E-032,1.34712829598112E-016,-4.44089209850063E-016));
#290=DIRECTION('',(6.12323399573677E-017,1.03837752434195E-016,-1.0));
#291=DIRECTION('',(-1.11853812882287E-032,1.0,1.03837752434195E-016));
#292=CARTESIAN_POINT('',(2.71926214689378E-032,1.34712829598112E-016,-4.44089209850063E-016));
#293=DIRECTION('',(6.12323399573677E-017,1.03837752434195E-016,-1.0));
#294=DIRECTION('',(-1.11853812882287E-032,1.0,1.03837752434195E-016));
#295=SURFACE_STYLE_FILL_AREA(#347);
#296=ORIENTED_EDGE('',*,*,#55,.F.);
#297=ORIENTED_EDGE('',*,*,#78,.T.);
#298=CARTESIAN_POINT('',(-1.22464679914735E-016,7.85,2.0));
#299=DIRECTION('',(6.12323399573677E-017,1.22464679914735E-016,-1.0));
#300=DIRECTION('',(-1.23259516440783E-032,1.0,1.22464679914735E-016));
#301=SURFACE_STYLE_FILL_AREA(#348);
#302=ORIENTED_EDGE('',*,*,#42,.F.);
#303=ORIENTED_EDGE('',*,*,#59,.T.);
#304=CARTESIAN_POINT('',(6.12323399573677E-017,2.38550582032308E-016,-1.0));
#305=DIRECTION('',(6.12323399573677E-017,1.03837752434195E-016,-1.0));
#306=DIRECTION('',(-1.11853812882287E-032,1.0,1.03837752434195E-016));
#307=CARTESIAN_POINT('',(-3.00038465791102E-015,-4.95333703967746E-015,49.0));
#308=DIRECTION('',(6.12323399573676E-017,1.03837752434195E-016,-1.0));
#309=DIRECTION('',(-1.11853812882287E-032,1.0,1.03837752434195E-016));
#310=SURFACE_STYLE_FILL_AREA(#349);
#311=ORIENTED_EDGE('',*,*,#67,.F.);
#312=CARTESIAN_POINT('',(-3.00038465791102E-015,3.99999999999999,49.0));
#313=DIRECTION('',(-6.12323399573677E-017,-1.22464679914735E-016,1.0));
#314=DIRECTION('',(1.23259516440783E-032,-1.0,-1.22464679914735E-016));
#315=SURFACE_STYLE_FILL_AREA(#350);
#316=ORIENTED_EDGE('',*,*,#47,.F.);
#317=ORIENTED_EDGE('',*,*,#42,.T.);
#318=CARTESIAN_POINT('',(1.37772764904077E-016,3.68347772575052E-016,-2.25));
#319=DIRECTION('',(6.12323399573677E-017,1.03837752434195E-016,-1.0));
#320=DIRECTION('',(-1.11853812882287E-032,1.0,1.03837752434195E-016));
#321=SURFACE_STYLE_FILL_AREA(#351);
#322=ORIENTED_EDGE('',*,*,#57,.F.);
#323=ORIENTED_EDGE('',*,*,#55,.T.);
#324=CARTESIAN_POINT('',(-6.12323399573676E-017,3.08750771639172E-017,0.999999999999999));
#325=DIRECTION('',(6.12323399573677E-017,1.03837752434195E-016,-1.0));
#326=DIRECTION('',(-1.11853812882287E-032,1.0,1.03837752434195E-016));
#327=CARTESIAN_POINT('',(-1.22464679914735E-016,-7.2962675270278E-017,2.0));
#328=DIRECTION('',(6.12323399573677E-017,1.03837752434195E-016,-1.0));
#329=DIRECTION('',(-1.11853812882287E-032,1.0,1.03837752434195E-016));
#330=SURFACE_STYLE_FILL_AREA(#352);
#331=ORIENTED_EDGE('',*,*,#78,.F.);
#332=ORIENTED_EDGE('',*,*,#67,.T.);
#333=CARTESIAN_POINT('',(-1.56142466891288E-015,-2.51314985747387E-015,25.5));
#334=DIRECTION('',(6.12323399573676E-017,1.03837752434195E-016,-1.0));
#335=DIRECTION('',(-1.11853812882287E-032,1.0,1.03837752434195E-016));
#336=SURFACE_STYLE_FILL_AREA(#353);
#337=ORIENTED_EDGE('',*,*,#86,.T.);
#338=CARTESIAN_POINT('',(1.83697019872103E-016,5.0,-3.0));
#339=DIRECTION('',(6.12323399573677E-017,1.22464679914735E-016,-1.0));
#340=DIRECTION('',(-1.23259516440783E-032,1.0,1.22464679914735E-016));
#341=CARTESIAN_POINT('',(1.83697019872103E-016,4.46226086900698E-016,-3.0));
#342=DIRECTION('',(6.12323399573677E-017,1.03837752434195E-016,-1.0));
#343=DIRECTION('',(-1.11853812882287E-032,1.0,1.03837752434195E-016));
#344=FILL_AREA_STYLE('',(#354));
#345=FILL_AREA_STYLE('',(#355));
#346=FILL_AREA_STYLE('',(#356));
#347=FILL_AREA_STYLE('',(#357));
#348=FILL_AREA_STYLE('',(#358));
#349=FILL_AREA_STYLE('',(#359));
#350=FILL_AREA_STYLE('',(#360));
#351=FILL_AREA_STYLE('',(#361));
#352=FILL_AREA_STYLE('',(#362));
#353=FILL_AREA_STYLE('',(#363));
#354=FILL_AREA_STYLE_COLOUR('',#364);
#355=FILL_AREA_STYLE_COLOUR('',#365);
#356=FILL_AREA_STYLE_COLOUR('',#366);
#357=FILL_AREA_STYLE_COLOUR('',#367);
#358=FILL_AREA_STYLE_COLOUR('',#368);
#359=FILL_AREA_STYLE_COLOUR('',#369);
#360=FILL_AREA_STYLE_COLOUR('',#370);
#361=FILL_AREA_STYLE_COLOUR('',#371);
#362=FILL_AREA_STYLE_COLOUR('',#372);
#363=FILL_AREA_STYLE_COLOUR('',#373);
#364=COLOUR_RGB('',0.0,1.0,0.0);
#365=COLOUR_RGB('',0.0,1.0,0.0);
#366=COLOUR_RGB('',0.0,1.0,0.0);
#367=COLOUR_RGB('',0.0,1.0,0.0);
#368=COLOUR_RGB('',0.0,1.0,0.0);
#369=COLOUR_RGB('',0.0,1.0,0.0);
#370=COLOUR_RGB('',0.0,1.0,0.0);
#371=COLOUR_RGB('',0.0,1.0,0.0);
#372=COLOUR_RGB('',0.0,1.0,0.0);
#373=COLOUR_RGB('',0.0,1.0,0.0);
ENDSEC;
END-ISO-10303-21;
