ISO-10303-21;
HEADER;
FILE_DESCRIPTION((''),'1');
FILE_NAME('T:/00_BIG-HP\X2\FF71FF6FFF8CFF9F\X0\/2022_\X2\30C030A630F330ED30FC30C930C730FC30BF\X0\/02_STEP\X2\FF83FF9EFF70FF80\X0\/LINK\X2\7528FF83FF9EFF70FF80FF8EFF99FF80FF9E\X0\/CK\X2\FF8DFF6FFF84FF9E30FBFF71FF78FF7EFF7BFF98\X0\/14_\X2\59165F84FF8EFF9EFF70FF98FF9DFF78FF9E\X0\/01_S\X2\FF80FF72FF8CFF9F\X0\/\X2\5EA76A19\X0\_\X2\5C5E6027590966F4\X0\/BW-M10.stp','2022-09-28T23:28:19',(''),(''),'Spatial Interop R21 SP3','Kubotek KeyCreator 2011 V10.0.2 (22737)',' ');
FILE_SCHEMA(('automotive_design'));
ENDSEC;
DATA;
#1=MECHANICAL_DESIGN_GEOMETRIC_PRESENTATION_REPRESENTATION(' ',(#10,#11,#12,#13,#14,#15,#16,#17,#18,#19,#20,#21,#22,#23,#24,#25,#26,#27,#28,#29,#30,#31,#32,#33,#34,#35,#36,#37),#6);
#2=PRODUCT_DEFINITION_CONTEXT('',#38,'design');
#3=APPLICATION_PROTOCOL_DEFINITION('INTERNATIONAL STANDARD','automotive_design',1994,#38);
#4=PRODUCT_CATEGORY_RELATIONSHIP('NONE','NONE',#39,#40);
#5=SHAPE_DEFINITION_REPRESENTATION(#41,#42);
#6= (GEOMETRIC_REPRESENTATION_CONTEXT(3)GLOBAL_UNCERTAINTY_ASSIGNED_CONTEXT((#45))GLOBAL_UNIT_ASSIGNED_CONTEXT((#47,#48,#49))REPRESENTATION_CONTEXT('NONE','WORKSPACE'));
#10=STYLED_ITEM('',(#51,#52),#53);
#11=STYLED_ITEM('',(#54),#55);
#12=STYLED_ITEM('',(#56),#57);
#13=STYLED_ITEM('',(#58),#59);
#14=STYLED_ITEM('',(#60),#61);
#15=STYLED_ITEM('',(#62),#63);
#16=STYLED_ITEM('',(#64),#65);
#17=STYLED_ITEM('',(#66,#67),#68);
#18=STYLED_ITEM('',(#69),#70);
#19=STYLED_ITEM('',(#71),#72);
#20=STYLED_ITEM('',(#73),#74);
#21=STYLED_ITEM('',(#75,#76),#77);
#22=STYLED_ITEM('',(#78,#79),#80);
#23=STYLED_ITEM('',(#81,#82),#83);
#24=STYLED_ITEM('',(#84,#85),#86);
#25=STYLED_ITEM('',(#87,#88),#89);
#26=STYLED_ITEM('',(#90),#91);
#27=STYLED_ITEM('',(#92,#93),#94);
#28=STYLED_ITEM('',(#95),#96);
#29=STYLED_ITEM('',(#97),#98);
#30=STYLED_ITEM('',(#99,#100),#101);
#31=STYLED_ITEM('',(#102,#103),#104);
#32=STYLED_ITEM('',(#105),#106);
#33=STYLED_ITEM('',(#107,#108),#109);
#34=STYLED_ITEM('',(#110),#111);
#35=STYLED_ITEM('',(#112),#113);
#36=STYLED_ITEM('',(#114),#115);
#37=STYLED_ITEM('',(#116,#117),#118);
#38=APPLICATION_CONTEXT(' ');
#39=PRODUCT_CATEGORY('part','NONE');
#40=PRODUCT_RELATED_PRODUCT_CATEGORY('detail',' ',(#119));
#41=PRODUCT_DEFINITION_SHAPE('NONE','NONE',#120);
#42=ADVANCED_BREP_SHAPE_REPRESENTATION('240[2]',(#101,#121),#6);
#45=UNCERTAINTY_MEASURE_WITH_UNIT(LENGTH_MEASURE(1.0E-006),#47,'','');
#47= (CONVERSION_BASED_UNIT('MILLIMETRE',#124)LENGTH_UNIT()NAMED_UNIT(#127));
#48= (NAMED_UNIT(#129)PLANE_ANGLE_UNIT()SI_UNIT($,.RADIAN.));
#49= (NAMED_UNIT(#129)SOLID_ANGLE_UNIT()SI_UNIT($,.STERADIAN.));
#51=PRESENTATION_STYLE_ASSIGNMENT((#135));
#52=PRESENTATION_STYLE_ASSIGNMENT((#136));
#53=ADVANCED_FACE('240[2]',(#137,#138),#139,.T.);
#54=PRESENTATION_STYLE_ASSIGNMENT((#140));
#55=EDGE_CURVE('240[2]',#141,#141,#142,.T.);
#56=PRESENTATION_STYLE_ASSIGNMENT((#143));
#57=EDGE_CURVE('240[2]',#144,#144,#145,.T.);
#58=PRESENTATION_STYLE_ASSIGNMENT((#146));
#59=EDGE_CURVE('240[2]',#147,#148,#149,.T.);
#60=PRESENTATION_STYLE_ASSIGNMENT((#150));
#61=EDGE_CURVE('240[2]',#151,#152,#153,.T.);
#62=PRESENTATION_STYLE_ASSIGNMENT((#154));
#63=EDGE_CURVE('240[2]',#151,#147,#155,.T.);
#64=PRESENTATION_STYLE_ASSIGNMENT((#156));
#65=EDGE_CURVE('240[2]',#157,#158,#159,.T.);
#66=PRESENTATION_STYLE_ASSIGNMENT((#160));
#67=PRESENTATION_STYLE_ASSIGNMENT((#161));
#68=ADVANCED_FACE('240[2]',(#162),#163,.F.);
#69=PRESENTATION_STYLE_ASSIGNMENT((#164));
#70=EDGE_CURVE('240[2]',#148,#152,#165,.T.);
#71=PRESENTATION_STYLE_ASSIGNMENT((#166));
#72=EDGE_CURVE('240[2]',#167,#168,#169,.T.);
#73=PRESENTATION_STYLE_ASSIGNMENT((#170));
#74=EDGE_CURVE('240[2]',#157,#167,#171,.T.);
#75=PRESENTATION_STYLE_ASSIGNMENT((#172));
#76=PRESENTATION_STYLE_ASSIGNMENT((#173));
#77=ADVANCED_FACE('240[2]',(#174,#175,#176,#177),#178,.T.);
#78=PRESENTATION_STYLE_ASSIGNMENT((#179));
#79=PRESENTATION_STYLE_ASSIGNMENT((#180));
#80=ADVANCED_FACE('240[2]',(#181),#182,.T.);
#81=PRESENTATION_STYLE_ASSIGNMENT((#183));
#82=PRESENTATION_STYLE_ASSIGNMENT((#184));
#83=ADVANCED_FACE('240[2]',(#185,#186),#187,.F.);
#84=PRESENTATION_STYLE_ASSIGNMENT((#188));
#85=PRESENTATION_STYLE_ASSIGNMENT((#189));
#86=ADVANCED_FACE('240[2]',(#190),#191,.F.);
#87=PRESENTATION_STYLE_ASSIGNMENT((#192));
#88=PRESENTATION_STYLE_ASSIGNMENT((#193));
#89=ADVANCED_FACE('240[2]',(#194),#195,.F.);
#90=PRESENTATION_STYLE_ASSIGNMENT((#196));
#91=EDGE_CURVE('240[2]',#147,#148,#197,.T.);
#92=PRESENTATION_STYLE_ASSIGNMENT((#198));
#93=PRESENTATION_STYLE_ASSIGNMENT((#199));
#94=ADVANCED_FACE('240[2]',(#200),#201,.F.);
#95=PRESENTATION_STYLE_ASSIGNMENT((#202));
#96=EDGE_CURVE('240[2]',#203,#203,#204,.T.);
#97=PRESENTATION_STYLE_ASSIGNMENT((#205));
#98=EDGE_CURVE('240[2]',#168,#158,#206,.T.);
#99=PRESENTATION_STYLE_ASSIGNMENT((#207));
#100=PRESENTATION_STYLE_ASSIGNMENT((#208));
#101=MANIFOLD_SOLID_BREP('240[2]',#209);
#102=PRESENTATION_STYLE_ASSIGNMENT((#210));
#103=PRESENTATION_STYLE_ASSIGNMENT((#211));
#104=ADVANCED_FACE('240[2]',(#212),#213,.F.);
#105=PRESENTATION_STYLE_ASSIGNMENT((#214));
#106=EDGE_CURVE('240[2]',#167,#168,#215,.T.);
#107=PRESENTATION_STYLE_ASSIGNMENT((#216));
#108=PRESENTATION_STYLE_ASSIGNMENT((#217));
#109=ADVANCED_FACE('240[2]',(#218),#219,.F.);
#110=PRESENTATION_STYLE_ASSIGNMENT((#220));
#111=EDGE_CURVE('240[2]',#158,#157,#221,.T.);
#112=PRESENTATION_STYLE_ASSIGNMENT((#222));
#113=EDGE_CURVE('240[2]',#223,#223,#224,.T.);
#114=PRESENTATION_STYLE_ASSIGNMENT((#225));
#115=EDGE_CURVE('240[2]',#152,#151,#226,.T.);
#116=PRESENTATION_STYLE_ASSIGNMENT((#227));
#117=PRESENTATION_STYLE_ASSIGNMENT((#228));
#118=ADVANCED_FACE('240[2]',(#229),#230,.F.);
#119=PRODUCT('240[2]','240[2]','PART-240[2]-DESC',(#231));
#120=PRODUCT_DEFINITION('NONE','NONE',#232,#2);
#121=AXIS2_PLACEMENT_3D('',#233,#234,#235);
#124=LENGTH_MEASURE_WITH_UNIT(LENGTH_MEASURE(1.0),#236);
#127=DIMENSIONAL_EXPONENTS(1.0,0.0,0.0,0.0,0.0,0.0,0.0);
#129=DIMENSIONAL_EXPONENTS(0.0,0.0,0.0,0.0,0.0,0.0,0.0);
#135=SURFACE_STYLE_USAGE(.BOTH.,#237);
#136=CURVE_STYLE('',#238,POSITIVE_LENGTH_MEASURE(1000.0),#239);
#137=FACE_BOUND('',#240,.T.);
#138=FACE_OUTER_BOUND('',#241,.T.);
#139=PLANE('',#242);
#140=CURVE_STYLE('',#243,POSITIVE_LENGTH_MEASURE(1000.0),#244);
#141=VERTEX_POINT('',#245);
#142=CIRCLE('',#246,5.0);
#143=CURVE_STYLE('',#247,POSITIVE_LENGTH_MEASURE(1000.0),#248);
#144=VERTEX_POINT('',#249);
#145=CIRCLE('',#250,8.0);
#146=CURVE_STYLE('',#251,POSITIVE_LENGTH_MEASURE(1000.0),#252);
#147=VERTEX_POINT('',#253);
#148=VERTEX_POINT('',#254);
#149=CIRCLE('',#255,8.0);
#150=CURVE_STYLE('',#256,POSITIVE_LENGTH_MEASURE(1000.0),#257);
#151=VERTEX_POINT('',#258);
#152=VERTEX_POINT('',#259);
#153=LINE('',#260,#261);
#154=CURVE_STYLE('',#262,POSITIVE_LENGTH_MEASURE(1000.0),#263);
#155=LINE('',#264,#265);
#156=CURVE_STYLE('',#266,POSITIVE_LENGTH_MEASURE(1000.0),#267);
#157=VERTEX_POINT('',#268);
#158=VERTEX_POINT('',#269);
#159=LINE('',#270,#271);
#160=SURFACE_STYLE_USAGE(.BOTH.,#272);
#161=CURVE_STYLE('',#273,POSITIVE_LENGTH_MEASURE(1000.0),#274);
#162=FACE_OUTER_BOUND('',#275,.T.);
#163=PLANE('',#276);
#164=CURVE_STYLE('',#277,POSITIVE_LENGTH_MEASURE(1000.0),#278);
#165=LINE('',#279,#280);
#166=CURVE_STYLE('',#281,POSITIVE_LENGTH_MEASURE(1000.0),#282);
#167=VERTEX_POINT('',#283);
#168=VERTEX_POINT('',#284);
#169=LINE('',#285,#286);
#170=CURVE_STYLE('',#287,POSITIVE_LENGTH_MEASURE(1000.0),#288);
#171=LINE('',#289,#290);
#172=SURFACE_STYLE_USAGE(.BOTH.,#291);
#173=CURVE_STYLE('',#292,POSITIVE_LENGTH_MEASURE(1000.0),#293);
#174=FACE_BOUND('',#294,.T.);
#175=FACE_BOUND('',#295,.T.);
#176=FACE_BOUND('',#296,.T.);
#177=FACE_BOUND('',#297,.T.);
#178=CYLINDRICAL_SURFACE('',#298,8.0);
#179=SURFACE_STYLE_USAGE(.BOTH.,#299);
#180=CURVE_STYLE('',#300,POSITIVE_LENGTH_MEASURE(1000.0),#301);
#181=FACE_OUTER_BOUND('',#302,.T.);
#182=PLANE('',#303);
#183=SURFACE_STYLE_USAGE(.BOTH.,#304);
#184=CURVE_STYLE('',#305,POSITIVE_LENGTH_MEASURE(1000.0),#306);
#185=FACE_BOUND('',#307,.T.);
#186=FACE_BOUND('',#308,.T.);
#187=CYLINDRICAL_SURFACE('',#309,5.0);
#188=SURFACE_STYLE_USAGE(.BOTH.,#310);
#189=CURVE_STYLE('',#311,POSITIVE_LENGTH_MEASURE(1000.0),#312);
#190=FACE_OUTER_BOUND('',#313,.T.);
#191=PLANE('',#314);
#192=SURFACE_STYLE_USAGE(.BOTH.,#315);
#193=CURVE_STYLE('',#316,POSITIVE_LENGTH_MEASURE(1000.0),#317);
#194=FACE_OUTER_BOUND('',#318,.T.);
#195=PLANE('',#319);
#196=CURVE_STYLE('',#320,POSITIVE_LENGTH_MEASURE(1000.0),#321);
#197=LINE('',#322,#323);
#198=SURFACE_STYLE_USAGE(.BOTH.,#324);
#199=CURVE_STYLE('',#325,POSITIVE_LENGTH_MEASURE(1000.0),#326);
#200=FACE_OUTER_BOUND('',#327,.T.);
#201=PLANE('',#328);
#202=CURVE_STYLE('',#329,POSITIVE_LENGTH_MEASURE(1000.0),#330);
#203=VERTEX_POINT('',#331);
#204=CIRCLE('',#332,8.0);
#205=CURVE_STYLE('',#333,POSITIVE_LENGTH_MEASURE(1000.0),#334);
#206=LINE('',#335,#336);
#207=SURFACE_STYLE_USAGE(.BOTH.,#337);
#208=CURVE_STYLE('',#338,POSITIVE_LENGTH_MEASURE(1000.0),#339);
#209=CLOSED_SHELL('',(#83,#94,#77,#86,#118,#109,#104,#68,#89,#80,#53));
#210=SURFACE_STYLE_USAGE(.BOTH.,#340);
#211=CURVE_STYLE('',#341,POSITIVE_LENGTH_MEASURE(1000.0),#342);
#212=FACE_OUTER_BOUND('',#343,.T.);
#213=PLANE('',#344);
#214=CURVE_STYLE('',#345,POSITIVE_LENGTH_MEASURE(1000.0),#346);
#215=CIRCLE('',#347,8.0);
#216=SURFACE_STYLE_USAGE(.BOTH.,#348);
#217=CURVE_STYLE('',#349,POSITIVE_LENGTH_MEASURE(1000.0),#350);
#218=FACE_OUTER_BOUND('',#351,.T.);
#219=PLANE('',#352);
#220=CURVE_STYLE('',#353,POSITIVE_LENGTH_MEASURE(1000.0),#354);
#221=CIRCLE('',#355,8.0);
#222=CURVE_STYLE('',#356,POSITIVE_LENGTH_MEASURE(1000.0),#357);
#223=VERTEX_POINT('',#358);
#224=CIRCLE('',#359,5.0);
#225=CURVE_STYLE('',#360,POSITIVE_LENGTH_MEASURE(1000.0),#361);
#226=CIRCLE('',#362,8.0);
#227=SURFACE_STYLE_USAGE(.BOTH.,#363);
#228=CURVE_STYLE('',#364,POSITIVE_LENGTH_MEASURE(1000.0),#365);
#229=FACE_OUTER_BOUND('',#366,.T.);
#230=PLANE('',#367);
#231=PRODUCT_CONTEXT('',#38,'mechanical');
#232=PRODUCT_DEFINITION_FORMATION_WITH_SPECIFIED_SOURCE(' ','NONE',#119,.NOT_KNOWN.);
#233=CARTESIAN_POINT('',(0.0,0.0,0.0));
#234=DIRECTION('',(0.0,0.0,1.0));
#235=DIRECTION('',(1.0,0.0,0.0));
#236= (NAMED_UNIT(#127)LENGTH_UNIT()SI_UNIT(.MILLI.,.METRE.));
#237=SURFACE_SIDE_STYLE('',(#369));
#238=DRAUGHTING_PRE_DEFINED_CURVE_FONT('continuous');
#239=COLOUR_RGB('',0.501960813999176,0.501960813999176,0.501960813999176);
#240=EDGE_LOOP('',(#370));
#241=EDGE_LOOP('',(#371));
#242=AXIS2_PLACEMENT_3D('',#372,#373,#374);
#243=DRAUGHTING_PRE_DEFINED_CURVE_FONT('continuous');
#244=COLOUR_RGB('',0.501960813999176,0.501960813999176,0.501960813999176);
#245=CARTESIAN_POINT('',(5.0,0.0,0.0));
#246=AXIS2_PLACEMENT_3D('',#375,#376,#377);
#247=DRAUGHTING_PRE_DEFINED_CURVE_FONT('continuous');
#248=COLOUR_RGB('',0.501960813999176,0.501960813999176,0.501960813999176);
#249=CARTESIAN_POINT('',(-7.99999999999999,5.02101953718626E-015,-25.0));
#250=AXIS2_PLACEMENT_3D('',#378,#379,#380);
#251=DRAUGHTING_PRE_DEFINED_CURVE_FONT('continuous');
#252=COLOUR_RGB('',0.501960813999176,0.501960813999176,0.501960813999176);
#253=CARTESIAN_POINT('',(-7.0,3.87298334620742,-3.0));
#254=CARTESIAN_POINT('',(-7.0,-3.87298334620741,-3.0));
#255=AXIS2_PLACEMENT_3D('',#381,#382,#383);
#256=DRAUGHTING_PRE_DEFINED_CURVE_FONT('continuous');
#257=COLOUR_RGB('',0.501960813999176,0.501960813999176,0.501960813999176);
#258=CARTESIAN_POINT('',(-7.0,3.87298334620742,-10.0));
#259=CARTESIAN_POINT('',(-7.0,-3.87298334620741,-10.0));
#260=CARTESIAN_POINT('',(-7.0,3.87298334620742,-10.0));
#261=VECTOR('',#384,7.74596669241483);
#262=DRAUGHTING_PRE_DEFINED_CURVE_FONT('continuous');
#263=COLOUR_RGB('',0.501960813999176,0.501960813999176,0.501960813999176);
#264=CARTESIAN_POINT('',(-7.0,3.87298334620742,-10.0));
#265=VECTOR('',#385,7.0);
#266=DRAUGHTING_PRE_DEFINED_CURVE_FONT('continuous');
#267=COLOUR_RGB('',0.501960813999176,0.501960813999176,0.501960813999176);
#268=CARTESIAN_POINT('',(7.0,-3.87298334620742,-10.0));
#269=CARTESIAN_POINT('',(7.0,3.87298334620742,-10.0));
#270=CARTESIAN_POINT('',(7.0,-3.87298334620742,-10.0));
#271=VECTOR('',#386,7.74596669241483);
#272=SURFACE_SIDE_STYLE('',(#387));
#273=DRAUGHTING_PRE_DEFINED_CURVE_FONT('continuous');
#274=COLOUR_RGB('',0.501960813999176,0.501960813999176,0.501960813999176);
#275=EDGE_LOOP('',(#388,#389,#390,#391));
#276=AXIS2_PLACEMENT_3D('',#392,#393,#394);
#277=DRAUGHTING_PRE_DEFINED_CURVE_FONT('continuous');
#278=COLOUR_RGB('',0.501960813999176,0.501960813999176,0.501960813999176);
#279=CARTESIAN_POINT('',(-7.0,-3.87298334620741,-3.0));
#280=VECTOR('',#395,7.0);
#281=DRAUGHTING_PRE_DEFINED_CURVE_FONT('continuous');
#282=COLOUR_RGB('',0.501960813999176,0.501960813999176,0.501960813999176);
#283=CARTESIAN_POINT('',(7.0,-3.87298334620741,-3.0));
#284=CARTESIAN_POINT('',(7.0,3.87298334620741,-3.0));
#285=CARTESIAN_POINT('',(7.0,-3.87298334620741,-3.0));
#286=VECTOR('',#396,7.74596669241483);
#287=DRAUGHTING_PRE_DEFINED_CURVE_FONT('continuous');
#288=COLOUR_RGB('',0.501960813999176,0.501960813999176,0.501960813999176);
#289=CARTESIAN_POINT('',(7.0,-3.87298334620742,-10.0));
#290=VECTOR('',#397,7.0);
#291=SURFACE_SIDE_STYLE('',(#398));
#292=DRAUGHTING_PRE_DEFINED_CURVE_FONT('continuous');
#293=COLOUR_RGB('',0.501960813999176,0.501960813999176,0.501960813999176);
#294=EDGE_LOOP('',(#399,#400,#401,#402));
#295=EDGE_LOOP('',(#403));
#296=EDGE_LOOP('',(#404,#405,#406,#407));
#297=EDGE_LOOP('',(#408));
#298=AXIS2_PLACEMENT_3D('',#409,#410,#411);
#299=SURFACE_SIDE_STYLE('',(#412));
#300=DRAUGHTING_PRE_DEFINED_CURVE_FONT('continuous');
#301=COLOUR_RGB('',0.501960813999176,0.501960813999176,0.501960813999176);
#302=EDGE_LOOP('',(#413));
#303=AXIS2_PLACEMENT_3D('',#414,#415,#416);
#304=SURFACE_SIDE_STYLE('',(#417));
#305=DRAUGHTING_PRE_DEFINED_CURVE_FONT('continuous');
#306=COLOUR_RGB('',0.501960813999176,0.501960813999176,0.501960813999176);
#307=EDGE_LOOP('',(#418));
#308=EDGE_LOOP('',(#419));
#309=AXIS2_PLACEMENT_3D('',#420,#421,#422);
#310=SURFACE_SIDE_STYLE('',(#423));
#311=DRAUGHTING_PRE_DEFINED_CURVE_FONT('continuous');
#312=COLOUR_RGB('',0.501960813999176,0.501960813999176,0.501960813999176);
#313=EDGE_LOOP('',(#424,#425));
#314=AXIS2_PLACEMENT_3D('',#426,#427,#428);
#315=SURFACE_SIDE_STYLE('',(#429));
#316=DRAUGHTING_PRE_DEFINED_CURVE_FONT('continuous');
#317=COLOUR_RGB('',0.501960813999176,0.501960813999176,0.501960813999176);
#318=EDGE_LOOP('',(#430,#431));
#319=AXIS2_PLACEMENT_3D('',#432,#433,#434);
#320=DRAUGHTING_PRE_DEFINED_CURVE_FONT('continuous');
#321=COLOUR_RGB('',0.501960813999176,0.501960813999176,0.501960813999176);
#322=CARTESIAN_POINT('',(-7.0,3.87298334620742,-3.0));
#323=VECTOR('',#435,7.74596669241483);
#324=SURFACE_SIDE_STYLE('',(#436));
#325=DRAUGHTING_PRE_DEFINED_CURVE_FONT('continuous');
#326=COLOUR_RGB('',0.501960813999176,0.501960813999176,0.501960813999176);
#327=EDGE_LOOP('',(#437));
#328=AXIS2_PLACEMENT_3D('',#438,#439,#440);
#329=DRAUGHTING_PRE_DEFINED_CURVE_FONT('continuous');
#330=COLOUR_RGB('',0.501960813999176,0.501960813999176,0.501960813999176);
#331=CARTESIAN_POINT('',(8.0,-9.79717439317883E-016,9.79717439317883E-016));
#332=AXIS2_PLACEMENT_3D('',#441,#442,#443);
#333=DRAUGHTING_PRE_DEFINED_CURVE_FONT('continuous');
#334=COLOUR_RGB('',0.501960813999176,0.501960813999176,0.501960813999176);
#335=CARTESIAN_POINT('',(7.0,3.87298334620741,-3.0));
#336=VECTOR('',#444,7.0);
#337=SURFACE_SIDE_STYLE('',(#445));
#338=DRAUGHTING_PRE_DEFINED_CURVE_FONT('continuous');
#339=COLOUR_RGB('',0.501960813999176,0.501960813999176,0.501960813999176);
#340=SURFACE_SIDE_STYLE('',(#446));
#341=DRAUGHTING_PRE_DEFINED_CURVE_FONT('continuous');
#342=COLOUR_RGB('',0.501960813999176,0.501960813999176,0.501960813999176);
#343=EDGE_LOOP('',(#447,#448));
#344=AXIS2_PLACEMENT_3D('',#449,#450,#451);
#345=DRAUGHTING_PRE_DEFINED_CURVE_FONT('continuous');
#346=COLOUR_RGB('',0.501960813999176,0.501960813999176,0.501960813999176);
#347=AXIS2_PLACEMENT_3D('',#452,#453,#454);
#348=SURFACE_SIDE_STYLE('',(#455));
#349=DRAUGHTING_PRE_DEFINED_CURVE_FONT('continuous');
#350=COLOUR_RGB('',0.501960813999176,0.501960813999176,0.501960813999176);
#351=EDGE_LOOP('',(#456,#457,#458,#459));
#352=AXIS2_PLACEMENT_3D('',#460,#461,#462);
#353=DRAUGHTING_PRE_DEFINED_CURVE_FONT('continuous');
#354=COLOUR_RGB('',0.501960813999176,0.501960813999176,0.501960813999176);
#355=AXIS2_PLACEMENT_3D('',#463,#464,#465);
#356=DRAUGHTING_PRE_DEFINED_CURVE_FONT('continuous');
#357=COLOUR_RGB('',0.501960813999176,0.501960813999176,0.501960813999176);
#358=CARTESIAN_POINT('',(5.0,0.0,-11.0));
#359=AXIS2_PLACEMENT_3D('',#466,#467,#468);
#360=DRAUGHTING_PRE_DEFINED_CURVE_FONT('continuous');
#361=COLOUR_RGB('',0.501960813999176,0.501960813999176,0.501960813999176);
#362=AXIS2_PLACEMENT_3D('',#469,#470,#471);
#363=SURFACE_SIDE_STYLE('',(#472));
#364=DRAUGHTING_PRE_DEFINED_CURVE_FONT('continuous');
#365=COLOUR_RGB('',0.501960813999176,0.501960813999176,0.501960813999176);
#366=EDGE_LOOP('',(#473,#474));
#367=AXIS2_PLACEMENT_3D('',#475,#476,#477);
#369=SURFACE_STYLE_FILL_AREA(#478);
#370=ORIENTED_EDGE('',*,*,#55,.T.);
#371=ORIENTED_EDGE('',*,*,#96,.T.);
#372=CARTESIAN_POINT('',(4.0,-4.89858719658941E-016,4.89858719658941E-016));
#373=DIRECTION('',(-1.83667601732676E-048,-1.22464679914735E-016,1.0));
#374=DIRECTION('',(1.0,-1.49975978266185E-032,0.0));
#375=CARTESIAN_POINT('',(0.0,0.0,4.89858719658941E-016));
#376=DIRECTION('',(1.83667601732676E-048,1.22464679914735E-016,-1.0));
#377=DIRECTION('',(1.0,-2.24927940568992E-064,1.83667601732676E-048));
#378=CARTESIAN_POINT('',(3.06161699786838E-015,3.06161699786838E-015,-25.0));
#379=DIRECTION('',(-1.22464679914735E-016,-1.22464679914735E-016,1.0));
#380=DIRECTION('',(1.0,-1.22464679914735E-016,1.22464679914735E-016));
#381=CARTESIAN_POINT('',(3.67394039744206E-016,3.67394039744206E-016,-3.0));
#382=DIRECTION('',(-1.22464679914735E-016,-1.22464679914735E-016,1.0));
#383=DIRECTION('',(1.0,-1.22464679914735E-016,1.22464679914735E-016));
#384=DIRECTION('',(-1.22464679914735E-016,-1.0,-1.22464679914735E-016));
#385=DIRECTION('',(-1.22464679914735E-016,-1.22464679914735E-016,1.0));
#386=DIRECTION('',(1.22464679914735E-016,1.0,1.22464679914735E-016));
#387=SURFACE_STYLE_FILL_AREA(#479);
#388=ORIENTED_EDGE('',*,*,#63,.F.);
#389=ORIENTED_EDGE('',*,*,#61,.T.);
#390=ORIENTED_EDGE('',*,*,#70,.F.);
#391=ORIENTED_EDGE('',*,*,#91,.F.);
#392=CARTESIAN_POINT('',(-7.0,2.0818995585505E-015,-10.0));
#393=DIRECTION('',(1.0,-1.22464679914735E-016,1.83667601732676E-048));
#394=DIRECTION('',(0.0,1.49975978266185E-032,1.0));
#395=DIRECTION('',(1.22464679914735E-016,1.22464679914735E-016,-1.0));
#396=DIRECTION('',(1.22464679914735E-016,1.0,1.22464679914735E-016));
#397=DIRECTION('',(-1.22464679914735E-016,-1.22464679914735E-016,1.0));
#398=SURFACE_STYLE_FILL_AREA(#480);
#399=ORIENTED_EDGE('',*,*,#106,.T.);
#400=ORIENTED_EDGE('',*,*,#98,.T.);
#401=ORIENTED_EDGE('',*,*,#111,.T.);
#402=ORIENTED_EDGE('',*,*,#74,.T.);
#403=ORIENTED_EDGE('',*,*,#96,.F.);
#404=ORIENTED_EDGE('',*,*,#59,.T.);
#405=ORIENTED_EDGE('',*,*,#70,.T.);
#406=ORIENTED_EDGE('',*,*,#115,.T.);
#407=ORIENTED_EDGE('',*,*,#63,.T.);
#408=ORIENTED_EDGE('',*,*,#57,.T.);
#409=CARTESIAN_POINT('',(1.53080849893419E-015,1.53080849893419E-015,-12.5));
#410=DIRECTION('',(-1.22464679914735E-016,-1.22464679914735E-016,1.0));
#411=DIRECTION('',(1.0,-1.22464679914735E-016,1.22464679914735E-016));
#412=SURFACE_STYLE_FILL_AREA(#481);
#413=ORIENTED_EDGE('',*,*,#57,.F.);
#414=CARTESIAN_POINT('',(4.0,2.57175827820944E-015,-25.0));
#415=DIRECTION('',(1.22464679914735E-016,1.22464679914735E-016,-1.0));
#416=DIRECTION('',(0.0,-1.0,-1.22464679914735E-016));
#417=SURFACE_STYLE_FILL_AREA(#482);
#418=ORIENTED_EDGE('',*,*,#113,.F.);
#419=ORIENTED_EDGE('',*,*,#55,.F.);
#420=CARTESIAN_POINT('',(0.0,0.0,0.0));
#421=DIRECTION('',(0.0,0.0,-1.0));
#422=DIRECTION('',(1.0,0.0,0.0));
#423=SURFACE_STYLE_FILL_AREA(#483);
#424=ORIENTED_EDGE('',*,*,#111,.F.);
#425=ORIENTED_EDGE('',*,*,#65,.F.);
#426=CARTESIAN_POINT('',(7.0,3.67394039744206E-016,-10.0));
#427=DIRECTION('',(1.22464679914735E-016,1.22464679914735E-016,-1.0));
#428=DIRECTION('',(0.0,-1.0,-1.22464679914735E-016));
#429=SURFACE_STYLE_FILL_AREA(#484);
#430=ORIENTED_EDGE('',*,*,#115,.F.);
#431=ORIENTED_EDGE('',*,*,#61,.F.);
#432=CARTESIAN_POINT('',(-10.6238135784427,2.52568872850516E-015,-10.0));
#433=DIRECTION('',(1.22464679914735E-016,1.22464679914735E-016,-1.0));
#434=DIRECTION('',(0.0,-1.0,-1.22464679914735E-016));
#435=DIRECTION('',(-1.22464679914735E-016,-1.0,-1.22464679914735E-016));
#436=SURFACE_STYLE_FILL_AREA(#485);
#437=ORIENTED_EDGE('',*,*,#113,.T.);
#438=CARTESIAN_POINT('',(0.885722587661414,-4.92092425238454,-11.0));
#439=DIRECTION('',(0.0,0.0,-1.0));
#440=DIRECTION('',(1.0,0.0,0.0));
#441=CARTESIAN_POINT('',(0.0,0.0,0.0));
#442=DIRECTION('',(-1.22464679914735E-016,-1.22464679914735E-016,1.0));
#443=DIRECTION('',(1.0,-1.22464679914735E-016,1.22464679914735E-016));
#444=DIRECTION('',(1.22464679914735E-016,1.22464679914735E-016,-1.0));
#445=SURFACE_STYLE_FILL_AREA(#486);
#446=SURFACE_STYLE_FILL_AREA(#487);
#447=ORIENTED_EDGE('',*,*,#59,.F.);
#448=ORIENTED_EDGE('',*,*,#91,.T.);
#449=CARTESIAN_POINT('',(-7.0,1.22464679914735E-015,-3.0));
#450=DIRECTION('',(-1.83667601732676E-048,-1.22464679914735E-016,1.0));
#451=DIRECTION('',(1.0,-1.49975978266185E-032,0.0));
#452=CARTESIAN_POINT('',(3.67394039744206E-016,3.67394039744206E-016,-3.0));
#453=DIRECTION('',(-1.22464679914735E-016,-1.22464679914735E-016,1.0));
#454=DIRECTION('',(1.0,-1.22464679914735E-016,1.22464679914735E-016));
#455=SURFACE_STYLE_FILL_AREA(#488);
#456=ORIENTED_EDGE('',*,*,#98,.F.);
#457=ORIENTED_EDGE('',*,*,#72,.F.);
#458=ORIENTED_EDGE('',*,*,#74,.F.);
#459=ORIENTED_EDGE('',*,*,#65,.T.);
#460=CARTESIAN_POINT('',(7.0,-4.89858719658941E-016,-3.0));
#461=DIRECTION('',(-1.0,1.22464679914735E-016,-1.22464679914735E-016));
#462=DIRECTION('',(-1.22464679914735E-016,0.0,1.0));
#463=CARTESIAN_POINT('',(1.22464679914735E-015,1.22464679914735E-015,-10.0));
#464=DIRECTION('',(1.22464679914735E-016,1.22464679914735E-016,-1.0));
#465=DIRECTION('',(1.0,-1.22464679914735E-016,1.22464679914735E-016));
#466=CARTESIAN_POINT('',(0.0,0.0,-11.0));
#467=DIRECTION('',(0.0,0.0,1.0));
#468=DIRECTION('',(1.0,0.0,0.0));
#469=CARTESIAN_POINT('',(1.22464679914735E-015,1.22464679914735E-015,-10.0));
#470=DIRECTION('',(1.22464679914735E-016,1.22464679914735E-016,-1.0));
#471=DIRECTION('',(1.0,-1.22464679914735E-016,1.22464679914735E-016));
#472=SURFACE_STYLE_FILL_AREA(#489);
#473=ORIENTED_EDGE('',*,*,#106,.F.);
#474=ORIENTED_EDGE('',*,*,#72,.T.);
#475=CARTESIAN_POINT('',(10.6238135784427,-9.336478896136E-016,-3.0));
#476=DIRECTION('',(-1.83667601732676E-048,-1.22464679914735E-016,1.0));
#477=DIRECTION('',(1.0,-1.49975978266185E-032,0.0));
#478=FILL_AREA_STYLE('',(#490));
#479=FILL_AREA_STYLE('',(#491));
#480=FILL_AREA_STYLE('',(#492));
#481=FILL_AREA_STYLE('',(#493));
#482=FILL_AREA_STYLE('',(#494));
#483=FILL_AREA_STYLE('',(#495));
#484=FILL_AREA_STYLE('',(#496));
#485=FILL_AREA_STYLE('',(#497));
#486=FILL_AREA_STYLE('',(#498));
#487=FILL_AREA_STYLE('',(#499));
#488=FILL_AREA_STYLE('',(#500));
#489=FILL_AREA_STYLE('',(#501));
#490=FILL_AREA_STYLE_COLOUR('',#502);
#491=FILL_AREA_STYLE_COLOUR('',#503);
#492=FILL_AREA_STYLE_COLOUR('',#504);
#493=FILL_AREA_STYLE_COLOUR('',#505);
#494=FILL_AREA_STYLE_COLOUR('',#506);
#495=FILL_AREA_STYLE_COLOUR('',#507);
#496=FILL_AREA_STYLE_COLOUR('',#508);
#497=FILL_AREA_STYLE_COLOUR('',#509);
#498=FILL_AREA_STYLE_COLOUR('',#510);
#499=FILL_AREA_STYLE_COLOUR('',#511);
#500=FILL_AREA_STYLE_COLOUR('',#512);
#501=FILL_AREA_STYLE_COLOUR('',#513);
#502=COLOUR_RGB('',0.501960813999176,0.501960813999176,0.501960813999176);
#503=COLOUR_RGB('',0.501960813999176,0.501960813999176,0.501960813999176);
#504=COLOUR_RGB('',0.501960813999176,0.501960813999176,0.501960813999176);
#505=COLOUR_RGB('',0.501960813999176,0.501960813999176,0.501960813999176);
#506=COLOUR_RGB('',0.501960813999176,0.501960813999176,0.501960813999176);
#507=COLOUR_RGB('',0.501960813999176,0.501960813999176,0.501960813999176);
#508=COLOUR_RGB('',0.501960813999176,0.501960813999176,0.501960813999176);
#509=COLOUR_RGB('',0.501960813999176,0.501960813999176,0.501960813999176);
#510=COLOUR_RGB('',0.501960813999176,0.501960813999176,0.501960813999176);
#511=COLOUR_RGB('',0.501960813999176,0.501960813999176,0.501960813999176);
#512=COLOUR_RGB('',0.501960813999176,0.501960813999176,0.501960813999176);
#513=COLOUR_RGB('',0.501960813999176,0.501960813999176,0.501960813999176);
ENDSEC;
END-ISO-10303-21;
