ISO-10303-21;
HEADER;
FILE_DESCRIPTION((''),'1');
FILE_NAME('T:/00_BIG-HP\X2\FF71FF6FFF8CFF9F\X0\/2022_\X2\30C030A630F330ED30FC30C930C730FC30BF\X0\/02_STEP\X2\FF83FF9EFF70FF80\X0\/LINK\X2\7528FF83FF9EFF70FF80FF8EFF99FF80FF9E\X0\/CK\X2\FF8DFF6FFF84FF9E30FBFF71FF78FF7EFF7BFF98\X0\/14_\X2\59165F84FF8EFF9EFF70FF98FF9DFF78FF9E\X0\/03_L\X2\FF80FF72FF8CFF9F\X0\/\X2\5EA76A19\X0\_\X2\5C5E6027590966F4\X0\/BW-CKB5-EWN.stp','2022-09-29T02:04:11',(''),(''),'Spatial Interop R21 SP3','Kubotek KeyCreator 2011 V10.0.2 (22737)',' ');
FILE_SCHEMA(('automotive_design'));
ENDSEC;
DATA;
#1=MECHANICAL_DESIGN_GEOMETRIC_PRESENTATION_REPRESENTATION(' ',(#10,#11,#12,#13,#14,#15,#16,#17,#18,#19,#20,#21,#22,#23,#24),#6);
#2=PRODUCT_DEFINITION_CONTEXT('',#25,'design');
#3=APPLICATION_PROTOCOL_DEFINITION('INTERNATIONAL STANDARD','automotive_design',1994,#25);
#4=PRODUCT_CATEGORY_RELATIONSHIP('NONE','NONE',#26,#27);
#5=SHAPE_DEFINITION_REPRESENTATION(#28,#29);
#6= (GEOMETRIC_REPRESENTATION_CONTEXT(3)GLOBAL_UNCERTAINTY_ASSIGNED_CONTEXT((#32))GLOBAL_UNIT_ASSIGNED_CONTEXT((#34,#35,#36))REPRESENTATION_CONTEXT('NONE','WORKSPACE'));
#10=STYLED_ITEM('',(#38),#39);
#11=STYLED_ITEM('',(#40,#41),#42);
#12=STYLED_ITEM('',(#43,#44),#45);
#13=STYLED_ITEM('',(#46),#47);
#14=STYLED_ITEM('',(#48,#49),#50);
#15=STYLED_ITEM('',(#51,#52),#53);
#16=STYLED_ITEM('',(#54,#55),#56);
#17=STYLED_ITEM('',(#57),#58);
#18=STYLED_ITEM('',(#59),#60);
#19=STYLED_ITEM('',(#61),#62);
#20=STYLED_ITEM('',(#63),#64);
#21=STYLED_ITEM('',(#65,#66),#67);
#22=STYLED_ITEM('',(#68,#69),#70);
#23=STYLED_ITEM('',(#71),#72);
#24=STYLED_ITEM('',(#73,#74),#75);
#25=APPLICATION_CONTEXT(' ');
#26=PRODUCT_CATEGORY('part','NONE');
#27=PRODUCT_RELATED_PRODUCT_CATEGORY('detail',' ',(#76));
#28=PRODUCT_DEFINITION_SHAPE('NONE','NONE',#77);
#29=ADVANCED_BREP_SHAPE_REPRESENTATION('240[2]',(#75,#78),#6);
#32=UNCERTAINTY_MEASURE_WITH_UNIT(LENGTH_MEASURE(1.0E-006),#34,'','');
#34= (CONVERSION_BASED_UNIT('MILLIMETRE',#81)LENGTH_UNIT()NAMED_UNIT(#84));
#35= (NAMED_UNIT(#86)PLANE_ANGLE_UNIT()SI_UNIT($,.RADIAN.));
#36= (NAMED_UNIT(#86)SOLID_ANGLE_UNIT()SI_UNIT($,.STERADIAN.));
#38=PRESENTATION_STYLE_ASSIGNMENT((#92));
#39=EDGE_CURVE('240[2]',#93,#93,#94,.T.);
#40=PRESENTATION_STYLE_ASSIGNMENT((#95));
#41=PRESENTATION_STYLE_ASSIGNMENT((#96));
#42=ADVANCED_FACE('240[2]',(#97,#98),#99,.T.);
#43=PRESENTATION_STYLE_ASSIGNMENT((#100));
#44=PRESENTATION_STYLE_ASSIGNMENT((#101));
#45=ADVANCED_FACE('240[2]',(#102,#103),#104,.F.);
#46=PRESENTATION_STYLE_ASSIGNMENT((#105));
#47=EDGE_CURVE('240[2]',#106,#106,#107,.T.);
#48=PRESENTATION_STYLE_ASSIGNMENT((#108));
#49=PRESENTATION_STYLE_ASSIGNMENT((#109));
#50=ADVANCED_FACE('240[2]',(#110,#111),#112,.F.);
#51=PRESENTATION_STYLE_ASSIGNMENT((#113));
#52=PRESENTATION_STYLE_ASSIGNMENT((#114));
#53=ADVANCED_FACE('240[2]',(#115),#116,.T.);
#54=PRESENTATION_STYLE_ASSIGNMENT((#117));
#55=PRESENTATION_STYLE_ASSIGNMENT((#118));
#56=ADVANCED_FACE('240[2]',(#119),#120,.T.);
#57=PRESENTATION_STYLE_ASSIGNMENT((#121));
#58=EDGE_CURVE('240[2]',#122,#122,#123,.T.);
#59=PRESENTATION_STYLE_ASSIGNMENT((#124));
#60=EDGE_CURVE('240[2]',#125,#125,#126,.T.);
#61=PRESENTATION_STYLE_ASSIGNMENT((#127));
#62=EDGE_CURVE('240[2]',#128,#128,#129,.T.);
#63=PRESENTATION_STYLE_ASSIGNMENT((#130));
#64=EDGE_CURVE('240[2]',#131,#132,#133,.T.);
#65=PRESENTATION_STYLE_ASSIGNMENT((#134));
#66=PRESENTATION_STYLE_ASSIGNMENT((#135));
#67=ADVANCED_FACE('240[2]',(#136),#137,.T.);
#68=PRESENTATION_STYLE_ASSIGNMENT((#138));
#69=PRESENTATION_STYLE_ASSIGNMENT((#139));
#70=ADVANCED_FACE('240[2]',(#140,#141,#142),#143,.T.);
#71=PRESENTATION_STYLE_ASSIGNMENT((#144));
#72=EDGE_CURVE('240[2]',#132,#131,#145,.T.);
#73=PRESENTATION_STYLE_ASSIGNMENT((#146));
#74=PRESENTATION_STYLE_ASSIGNMENT((#147));
#75=MANIFOLD_SOLID_BREP('240[2]',#148);
#76=PRODUCT('240[2]','240[2]','PART-240[2]-DESC',(#149));
#77=PRODUCT_DEFINITION('NONE','NONE',#150,#2);
#78=AXIS2_PLACEMENT_3D('',#151,#152,#153);
#81=LENGTH_MEASURE_WITH_UNIT(LENGTH_MEASURE(1.0),#154);
#84=DIMENSIONAL_EXPONENTS(1.0,0.0,0.0,0.0,0.0,0.0,0.0);
#86=DIMENSIONAL_EXPONENTS(0.0,0.0,0.0,0.0,0.0,0.0,0.0);
#92=CURVE_STYLE('',#155,POSITIVE_LENGTH_MEASURE(1000.0),#156);
#93=VERTEX_POINT('',#157);
#94=CIRCLE('',#158,24.5);
#95=SURFACE_STYLE_USAGE(.BOTH.,#159);
#96=CURVE_STYLE('',#160,POSITIVE_LENGTH_MEASURE(1000.0),#161);
#97=FACE_BOUND('',#162,.T.);
#98=FACE_BOUND('',#163,.T.);
#99=CYLINDRICAL_SURFACE('',#164,24.5);
#100=SURFACE_STYLE_USAGE(.BOTH.,#165);
#101=CURVE_STYLE('',#166,POSITIVE_LENGTH_MEASURE(1000.0),#167);
#102=FACE_BOUND('',#168,.T.);
#103=FACE_BOUND('',#169,.T.);
#104=CYLINDRICAL_SURFACE('',#170,5.15);
#105=CURVE_STYLE('',#171,POSITIVE_LENGTH_MEASURE(1000.0),#172);
#106=VERTEX_POINT('',#173);
#107=CIRCLE('',#174,5.15);
#108=SURFACE_STYLE_USAGE(.BOTH.,#175);
#109=CURVE_STYLE('',#176,POSITIVE_LENGTH_MEASURE(1000.0),#177);
#110=FACE_BOUND('',#178,.T.);
#111=FACE_OUTER_BOUND('',#179,.T.);
#112=PLANE('',#180);
#113=SURFACE_STYLE_USAGE(.BOTH.,#181);
#114=CURVE_STYLE('',#182,POSITIVE_LENGTH_MEASURE(1000.0),#183);
#115=FACE_OUTER_BOUND('',#184,.T.);
#116=PLANE('',#185);
#117=SURFACE_STYLE_USAGE(.BOTH.,#186);
#118=CURVE_STYLE('',#187,POSITIVE_LENGTH_MEASURE(1000.0),#188);
#119=FACE_OUTER_BOUND('',#189,.T.);
#120=PLANE('',#190);
#121=CURVE_STYLE('',#191,POSITIVE_LENGTH_MEASURE(1000.0),#192);
#122=VERTEX_POINT('',#193);
#123=CIRCLE('',#194,14.0);
#124=CURVE_STYLE('',#195,POSITIVE_LENGTH_MEASURE(1000.0),#196);
#125=VERTEX_POINT('',#197);
#126=CIRCLE('',#198,24.5);
#127=CURVE_STYLE('',#199,POSITIVE_LENGTH_MEASURE(1000.0),#200);
#128=VERTEX_POINT('',#201);
#129=CIRCLE('',#202,14.0);
#130=CURVE_STYLE('',#203,POSITIVE_LENGTH_MEASURE(1000.0),#204);
#131=VERTEX_POINT('',#205);
#132=VERTEX_POINT('',#206);
#133=B_SPLINE_CURVE_WITH_KNOTS('',3,(#207,#208,#209,#210,#211,#212,#213,#214,#215,#216,#217,#218,#219,#220,#221,#222,#223,#224,#225,#226,#227,#228,#229,#230,#231,#232,#233,#234,#235,#236,#237,#238,#239,#240,#241),.UNSPECIFIED.,.F.,.F.,(4,2,2,2,2,2,2,2,3,2,2,2,2,2,2,2,4),(23.5204432793477,24.5001160820227,25.4797888846977,26.4594616873727,27.4391344900477,28.4194986273184,29.399862764589,30.3802269018596,31.3605910391302,32.3409551764008,33.3213193136714,34.3016834509421,35.2820475882127,36.2617203908877,37.2413931935627,38.2210659962377,39.2007387989128),.UNSPECIFIED.);
#134=SURFACE_STYLE_USAGE(.BOTH.,#242);
#135=CURVE_STYLE('',#243,POSITIVE_LENGTH_MEASURE(1000.0),#244);
#136=FACE_OUTER_BOUND('',#245,.T.);
#137=PLANE('',#246);
#138=SURFACE_STYLE_USAGE(.BOTH.,#247);
#139=CURVE_STYLE('',#248,POSITIVE_LENGTH_MEASURE(1000.0),#249);
#140=FACE_BOUND('',#250,.T.);
#141=FACE_BOUND('',#251,.T.);
#142=FACE_BOUND('',#252,.T.);
#143=CYLINDRICAL_SURFACE('',#253,14.0);
#144=CURVE_STYLE('',#254,POSITIVE_LENGTH_MEASURE(1000.0),#255);
#145=B_SPLINE_CURVE_WITH_KNOTS('',3,(#256,#257,#258,#259,#260,#261,#262,#263,#264,#265,#266,#267,#268,#269,#270,#271,#272,#273,#274,#275,#276,#277,#278,#279,#280,#281,#282,#283,#284,#285,#286,#287,#288,#289),.UNSPECIFIED.,.F.,.F.,(4,2,2,2,2,2,2,2,2,2,2,2,2,2,2,2,4),(7.84014775978256,8.81982056245758,9.79949336513259,10.7791661678076,11.7588389704826,12.7392031077533,13.7195672450239,14.6999313822945,15.6802955195651,16.6606596568357,17.6410237941064,18.621387931377,19.6017520686476,20.5814248713226,21.5610976739976,22.5407704766726,23.5204432793477),.UNSPECIFIED.);
#146=SURFACE_STYLE_USAGE(.BOTH.,#290);
#147=CURVE_STYLE('',#291,POSITIVE_LENGTH_MEASURE(1000.0),#292);
#148=CLOSED_SHELL('',(#45,#67,#70,#56,#42,#53,#50));
#149=PRODUCT_CONTEXT('',#25,'mechanical');
#150=PRODUCT_DEFINITION_FORMATION_WITH_SPECIFIED_SOURCE(' ','NONE',#76,.NOT_KNOWN.);
#151=CARTESIAN_POINT('',(0.0,0.0,0.0));
#152=DIRECTION('',(0.0,0.0,1.0));
#153=DIRECTION('',(1.0,0.0,0.0));
#154= (NAMED_UNIT(#84)LENGTH_UNIT()SI_UNIT(.MILLI.,.METRE.));
#155=DRAUGHTING_PRE_DEFINED_CURVE_FONT('continuous');
#156=COLOUR_RGB('',0.501960813999176,0.501960813999176,0.501960813999176);
#157=CARTESIAN_POINT('',(24.5,0.0,0.0));
#158=AXIS2_PLACEMENT_3D('',#294,#295,#296);
#159=SURFACE_SIDE_STYLE('',(#297));
#160=DRAUGHTING_PRE_DEFINED_CURVE_FONT('continuous');
#161=COLOUR_RGB('',0.501960813999176,0.501960813999176,0.501960813999176);
#162=EDGE_LOOP('',(#298));
#163=EDGE_LOOP('',(#299));
#164=AXIS2_PLACEMENT_3D('',#300,#301,#302);
#165=SURFACE_SIDE_STYLE('',(#303));
#166=DRAUGHTING_PRE_DEFINED_CURVE_FONT('continuous');
#167=COLOUR_RGB('',0.501960813999176,0.501960813999176,0.501960813999176);
#168=EDGE_LOOP('',(#304,#305));
#169=EDGE_LOOP('',(#306));
#170=AXIS2_PLACEMENT_3D('',#307,#308,#309);
#171=DRAUGHTING_PRE_DEFINED_CURVE_FONT('continuous');
#172=COLOUR_RGB('',0.501960813999176,0.501960813999176,0.501960813999176);
#173=CARTESIAN_POINT('',(5.15,11.0,13.0));
#174=AXIS2_PLACEMENT_3D('',#310,#311,#312);
#175=SURFACE_SIDE_STYLE('',(#313));
#176=DRAUGHTING_PRE_DEFINED_CURVE_FONT('continuous');
#177=COLOUR_RGB('',0.501960813999176,0.501960813999176,0.501960813999176);
#178=EDGE_LOOP('',(#314));
#179=EDGE_LOOP('',(#315));
#180=AXIS2_PLACEMENT_3D('',#316,#317,#318);
#181=SURFACE_SIDE_STYLE('',(#319));
#182=DRAUGHTING_PRE_DEFINED_CURVE_FONT('continuous');
#183=COLOUR_RGB('',0.501960813999176,0.501960813999176,0.501960813999176);
#184=EDGE_LOOP('',(#320));
#185=AXIS2_PLACEMENT_3D('',#321,#322,#323);
#186=SURFACE_SIDE_STYLE('',(#324));
#187=DRAUGHTING_PRE_DEFINED_CURVE_FONT('continuous');
#188=COLOUR_RGB('',0.501960813999176,0.501960813999176,0.501960813999176);
#189=EDGE_LOOP('',(#325));
#190=AXIS2_PLACEMENT_3D('',#326,#327,#328);
#191=DRAUGHTING_PRE_DEFINED_CURVE_FONT('continuous');
#192=COLOUR_RGB('',0.501960813999176,0.501960813999176,0.501960813999176);
#193=CARTESIAN_POINT('',(14.0,0.0,0.0));
#194=AXIS2_PLACEMENT_3D('',#329,#330,#331);
#195=DRAUGHTING_PRE_DEFINED_CURVE_FONT('continuous');
#196=COLOUR_RGB('',0.501960813999176,0.501960813999176,0.501960813999176);
#197=CARTESIAN_POINT('',(24.5,0.0,-49.5));
#198=AXIS2_PLACEMENT_3D('',#332,#333,#334);
#199=DRAUGHTING_PRE_DEFINED_CURVE_FONT('continuous');
#200=COLOUR_RGB('',0.501960813999176,0.501960813999176,0.501960813999176);
#201=CARTESIAN_POINT('',(14.0,0.0,30.0));
#202=AXIS2_PLACEMENT_3D('',#335,#336,#337);
#203=DRAUGHTING_PRE_DEFINED_CURVE_FONT('continuous');
#204=COLOUR_RGB('',0.501960813999176,0.501960813999176,0.501960813999176);
#205=CARTESIAN_POINT('',(-9.4603965234133E-016,14.0,7.85));
#206=CARTESIAN_POINT('',(3.15346550780443E-016,14.0,18.15));
#207=CARTESIAN_POINT('',(6.10622663543836E-015,14.0,7.85));
#208=CARTESIAN_POINT('',(0.326557600891672,14.0,7.85));
#209=CARTESIAN_POINT('',(0.663311617334894,13.9882854337517,7.88156212487561));
#210=CARTESIAN_POINT('',(1.33127201546842,13.9405819999942,8.01340763609229));
#211=CARTESIAN_POINT('',(1.66248801830289,13.9046229748592,8.11365307221912));
#212=CARTESIAN_POINT('',(2.29607975819044,13.8141385623904,8.37741737925077));
#213=CARTESIAN_POINT('',(2.59901497140347,13.759607194512,8.54114578422341));
#214=CARTESIAN_POINT('',(3.15835752970774,13.6420836635984,8.91820658907705));
#215=CARTESIAN_POINT('',(3.41476743792588,13.5791954929313,9.13156759170444));
#216=CARTESIAN_POINT('',(3.86859247923352,13.456940849834,9.58539263301208));
#217=CARTESIAN_POINT('',(4.08197332140224,13.3931575688547,9.84187887485633));
#218=CARTESIAN_POINT('',(4.45896524864713,13.2724076481559,10.4011802410766));
#219=CARTESIAN_POINT('',(4.62261186915767,13.2155629808858,10.7039977390483));
#220=CARTESIAN_POINT('',(4.88628378719614,13.1203612177567,11.3373530725804));
#221=CARTESIAN_POINT('',(4.98651813922869,13.0820348533689,11.6684538297267));
#222=CARTESIAN_POINT('',(5.11839652576663,13.031002113119,12.3363771014567));
#223=CARTESIAN_POINT('',(5.15,13.0183524303193,12.6732119542431));
#224=CARTESIAN_POINT('',(5.15,13.0183524303193,13.0));
#225=CARTESIAN_POINT('',(5.15,13.0183524303193,13.3267880457569));
#226=CARTESIAN_POINT('',(5.11839652576663,13.031002113119,13.6636228985433));
#227=CARTESIAN_POINT('',(4.9865181392287,13.0820348533689,14.3315461702733));
#228=CARTESIAN_POINT('',(4.88628378719614,13.1203612177567,14.6626469274196));
#229=CARTESIAN_POINT('',(4.62261186915767,13.2155629808858,15.2960022609517));
#230=CARTESIAN_POINT('',(4.45896524864713,13.2724076481559,15.5988197589234));
#231=CARTESIAN_POINT('',(4.08197332140224,13.3931575688547,16.1581211251437));
#232=CARTESIAN_POINT('',(3.86859247923352,13.456940849834,16.4146073669879));
#233=CARTESIAN_POINT('',(3.41476743792588,13.5791954929313,16.8684324082956));
#234=CARTESIAN_POINT('',(3.15835752970774,13.6420836635984,17.0817934109229));
#235=CARTESIAN_POINT('',(2.59901497140347,13.759607194512,17.4588542157766));
#236=CARTESIAN_POINT('',(2.29607975819044,13.8141385623904,17.6225826207492));
#237=CARTESIAN_POINT('',(1.66248801830289,13.9046229748592,17.8863469277809));
#238=CARTESIAN_POINT('',(1.33127201546842,13.9405819999942,17.9865923639077));
#239=CARTESIAN_POINT('',(0.663311617334896,13.9882854337517,18.1184378751244));
#240=CARTESIAN_POINT('',(0.326557600891673,14.0,18.15));
#241=CARTESIAN_POINT('',(-2.77555756156289E-016,14.0,18.15));
#242=SURFACE_SIDE_STYLE('',(#338));
#243=DRAUGHTING_PRE_DEFINED_CURVE_FONT('continuous');
#244=COLOUR_RGB('',0.501960813999176,0.501960813999176,0.501960813999176);
#245=EDGE_LOOP('',(#339));
#246=AXIS2_PLACEMENT_3D('',#340,#341,#342);
#247=SURFACE_SIDE_STYLE('',(#343));
#248=DRAUGHTING_PRE_DEFINED_CURVE_FONT('continuous');
#249=COLOUR_RGB('',0.501960813999176,0.501960813999176,0.501960813999176);
#250=EDGE_LOOP('',(#344,#345));
#251=EDGE_LOOP('',(#346));
#252=EDGE_LOOP('',(#347));
#253=AXIS2_PLACEMENT_3D('',#348,#349,#350);
#254=DRAUGHTING_PRE_DEFINED_CURVE_FONT('continuous');
#255=COLOUR_RGB('',0.501960813999176,0.501960813999176,0.501960813999176);
#256=CARTESIAN_POINT('',(-2.77555756156289E-016,14.0,18.15));
#257=CARTESIAN_POINT('',(-0.326557600891673,14.0,18.15));
#258=CARTESIAN_POINT('',(-0.663311617334896,13.9882854337517,18.1184378751244));
#259=CARTESIAN_POINT('',(-1.33127201546842,13.9405819999942,17.9865923639077));
#260=CARTESIAN_POINT('',(-1.66248801830289,13.9046229748592,17.8863469277809));
#261=CARTESIAN_POINT('',(-2.29607975819044,13.8141385623904,17.6225826207492));
#262=CARTESIAN_POINT('',(-2.59901497140347,13.759607194512,17.4588542157766));
#263=CARTESIAN_POINT('',(-3.15835752970774,13.6420836635984,17.0817934109229));
#264=CARTESIAN_POINT('',(-3.41476743792588,13.5791954929313,16.8684324082956));
#265=CARTESIAN_POINT('',(-3.86859247923352,13.456940849834,16.4146073669879));
#266=CARTESIAN_POINT('',(-4.08197332140224,13.3931575688547,16.1581211251437));
#267=CARTESIAN_POINT('',(-4.45896524864713,13.2724076481559,15.5988197589234));
#268=CARTESIAN_POINT('',(-4.62261186915767,13.2155629808858,15.2960022609517));
#269=CARTESIAN_POINT('',(-4.88628378719613,13.1203612177567,14.6626469274196));
#270=CARTESIAN_POINT('',(-4.98651813922869,13.0820348533689,14.3315461702733));
#271=CARTESIAN_POINT('',(-5.11839652576663,13.031002113119,13.6636228985433));
#272=CARTESIAN_POINT('',(-5.15,13.0183524303193,13.3267880457569));
#273=CARTESIAN_POINT('',(-5.15,13.0183524303193,12.6732119542431));
#274=CARTESIAN_POINT('',(-5.11839652576663,13.031002113119,12.3363771014567));
#275=CARTESIAN_POINT('',(-4.9865181392287,13.0820348533689,11.6684538297267));
#276=CARTESIAN_POINT('',(-4.88628378719614,13.1203612177567,11.3373530725804));
#277=CARTESIAN_POINT('',(-4.62261186915767,13.2155629808858,10.7039977390483));
#278=CARTESIAN_POINT('',(-4.45896524864713,13.2724076481559,10.4011802410766));
#279=CARTESIAN_POINT('',(-4.08197332140224,13.3931575688547,9.84187887485633));
#280=CARTESIAN_POINT('',(-3.86859247923352,13.456940849834,9.58539263301208));
#281=CARTESIAN_POINT('',(-3.41476743792588,13.5791954929313,9.13156759170444));
#282=CARTESIAN_POINT('',(-3.15835752970774,13.6420836635984,8.91820658907706));
#283=CARTESIAN_POINT('',(-2.59901497140347,13.759607194512,8.54114578422341));
#284=CARTESIAN_POINT('',(-2.29607975819044,13.8141385623904,8.37741737925078));
#285=CARTESIAN_POINT('',(-1.66248801830289,13.9046229748592,8.11365307221912));
#286=CARTESIAN_POINT('',(-1.33127201546842,13.9405819999942,8.01340763609229));
#287=CARTESIAN_POINT('',(-0.663311617334896,13.9882854337517,7.88156212487561));
#288=CARTESIAN_POINT('',(-0.326557600891674,14.0,7.85));
#289=CARTESIAN_POINT('',(6.10622663543836E-015,14.0,7.85));
#290=SURFACE_SIDE_STYLE('',(#351));
#291=DRAUGHTING_PRE_DEFINED_CURVE_FONT('continuous');
#292=COLOUR_RGB('',0.501960813999176,0.501960813999176,0.501960813999176);
#294=CARTESIAN_POINT('',(0.0,0.0,0.0));
#295=DIRECTION('',(-0.0,0.0,1.0));
#296=DIRECTION('',(1.0,0.0,0.0));
#297=SURFACE_STYLE_FILL_AREA(#352);
#298=ORIENTED_EDGE('',*,*,#60,.T.);
#299=ORIENTED_EDGE('',*,*,#39,.F.);
#300=CARTESIAN_POINT('',(0.0,0.0,0.0));
#301=DIRECTION('',(0.0,0.0,-1.0));
#302=DIRECTION('',(1.0,0.0,0.0));
#303=SURFACE_STYLE_FILL_AREA(#353);
#304=ORIENTED_EDGE('',*,*,#72,.F.);
#305=ORIENTED_EDGE('',*,*,#64,.F.);
#306=ORIENTED_EDGE('',*,*,#47,.F.);
#307=CARTESIAN_POINT('',(0.0,14.0,13.0));
#308=DIRECTION('',(0.0,1.0,-0.0));
#309=DIRECTION('',(1.0,0.0,0.0));
#310=CARTESIAN_POINT('',(0.0,11.0,13.0));
#311=DIRECTION('',(-0.0,1.0,0.0));
#312=DIRECTION('',(1.0,0.0,0.0));
#313=SURFACE_STYLE_FILL_AREA(#354);
#314=ORIENTED_EDGE('',*,*,#58,.T.);
#315=ORIENTED_EDGE('',*,*,#39,.T.);
#316=CARTESIAN_POINT('',(4.34004067954093,-24.1125288366843,0.0));
#317=DIRECTION('',(0.0,0.0,-1.0));
#318=DIRECTION('',(0.0,-1.0,0.0));
#319=SURFACE_STYLE_FILL_AREA(#355);
#320=ORIENTED_EDGE('',*,*,#60,.F.);
#321=CARTESIAN_POINT('',(4.34004067954093,-24.1125288366843,-49.5));
#322=DIRECTION('',(0.0,0.0,-1.0));
#323=DIRECTION('',(0.0,-1.0,0.0));
#324=SURFACE_STYLE_FILL_AREA(#356);
#325=ORIENTED_EDGE('',*,*,#62,.F.);
#326=CARTESIAN_POINT('',(2.48002324545196,13.7785879066767,30.0));
#327=DIRECTION('',(0.0,0.0,1.0));
#328=DIRECTION('',(1.0,-0.0,0.0));
#329=CARTESIAN_POINT('',(0.0,0.0,0.0));
#330=DIRECTION('',(0.0,0.0,-1.0));
#331=DIRECTION('',(1.0,-0.0,0.0));
#332=CARTESIAN_POINT('',(0.0,0.0,-49.5));
#333=DIRECTION('',(0.0,0.0,1.0));
#334=DIRECTION('',(1.0,0.0,0.0));
#335=CARTESIAN_POINT('',(0.0,0.0,30.0));
#336=DIRECTION('',(0.0,0.0,-1.0));
#337=DIRECTION('',(1.0,0.0,0.0));
#338=SURFACE_STYLE_FILL_AREA(#357);
#339=ORIENTED_EDGE('',*,*,#47,.T.);
#340=CARTESIAN_POINT('',(0.912294265291256,11.0,7.93144802004392));
#341=DIRECTION('',(0.0,1.0,0.0));
#342=DIRECTION('',(1.0,0.0,-0.0));
#343=SURFACE_STYLE_FILL_AREA(#358);
#344=ORIENTED_EDGE('',*,*,#72,.T.);
#345=ORIENTED_EDGE('',*,*,#64,.T.);
#346=ORIENTED_EDGE('',*,*,#62,.T.);
#347=ORIENTED_EDGE('',*,*,#58,.F.);
#348=CARTESIAN_POINT('',(0.0,0.0,0.0));
#349=DIRECTION('',(0.0,0.0,-1.0));
#350=DIRECTION('',(1.0,0.0,0.0));
#351=SURFACE_STYLE_FILL_AREA(#359);
#352=FILL_AREA_STYLE('',(#360));
#353=FILL_AREA_STYLE('',(#361));
#354=FILL_AREA_STYLE('',(#362));
#355=FILL_AREA_STYLE('',(#363));
#356=FILL_AREA_STYLE('',(#364));
#357=FILL_AREA_STYLE('',(#365));
#358=FILL_AREA_STYLE('',(#366));
#359=FILL_AREA_STYLE('',(#367));
#360=FILL_AREA_STYLE_COLOUR('',#368);
#361=FILL_AREA_STYLE_COLOUR('',#369);
#362=FILL_AREA_STYLE_COLOUR('',#370);
#363=FILL_AREA_STYLE_COLOUR('',#371);
#364=FILL_AREA_STYLE_COLOUR('',#372);
#365=FILL_AREA_STYLE_COLOUR('',#373);
#366=FILL_AREA_STYLE_COLOUR('',#374);
#367=FILL_AREA_STYLE_COLOUR('',#375);
#368=COLOUR_RGB('',0.501960813999176,0.501960813999176,0.501960813999176);
#369=COLOUR_RGB('',0.501960813999176,0.501960813999176,0.501960813999176);
#370=COLOUR_RGB('',0.501960813999176,0.501960813999176,0.501960813999176);
#371=COLOUR_RGB('',0.501960813999176,0.501960813999176,0.501960813999176);
#372=COLOUR_RGB('',0.501960813999176,0.501960813999176,0.501960813999176);
#373=COLOUR_RGB('',0.501960813999176,0.501960813999176,0.501960813999176);
#374=COLOUR_RGB('',0.501960813999176,0.501960813999176,0.501960813999176);
#375=COLOUR_RGB('',0.501960813999176,0.501960813999176,0.501960813999176);
ENDSEC;
END-ISO-10303-21;
