ISO-10303-21;
HEADER;
FILE_DESCRIPTION((''),'1');
FILE_NAME('T:/00_BIG-HP\X2\FF71FF6FFF8CFF9F\X0\/2022_\X2\30C030A630F330ED30FC30C930C730FC30BF\X0\/02_STEP\X2\FF83FF9EFF70FF80\X0\/LINK\X2\7528FF83FF9EFF70FF80FF8EFF99FF80FF9E\X0\/CK\X2\FF8DFF6FFF84FF9E30FBFF71FF78FF7EFF7BFF98\X0\/14_\X2\59165F84FF8EFF9EFF70FF98FF9DFF78FF9E\X0\/02_M\X2\FF80FF72FF8CFF9F\X0\/\X2\5EA76A19\X0\_\X2\5C5E6027590966F4\X0\/BW-CKB3-EWN.stp','2022-09-29T01:31:49',(''),(''),'Spatial Interop R21 SP3','Kubotek KeyCreator 2011 V10.0.2 (22737)',' ');
FILE_SCHEMA(('automotive_design'));
ENDSEC;
DATA;
#1=MECHANICAL_DESIGN_GEOMETRIC_PRESENTATION_REPRESENTATION(' ',(#10,#11,#12,#13,#14,#15,#16,#17,#18,#19,#20,#21,#22,#23,#24,#25,#26),#6);
#2=PRODUCT_DEFINITION_CONTEXT('',#27,'design');
#3=APPLICATION_PROTOCOL_DEFINITION('INTERNATIONAL STANDARD','automotive_design',1994,#27);
#4=PRODUCT_CATEGORY_RELATIONSHIP('NONE','NONE',#28,#29);
#5=SHAPE_DEFINITION_REPRESENTATION(#30,#31);
#6= (GEOMETRIC_REPRESENTATION_CONTEXT(3)GLOBAL_UNCERTAINTY_ASSIGNED_CONTEXT((#34))GLOBAL_UNIT_ASSIGNED_CONTEXT((#36,#37,#38))REPRESENTATION_CONTEXT('NONE','WORKSPACE'));
#10=STYLED_ITEM('',(#40,#41),#42);
#11=STYLED_ITEM('',(#43),#44);
#12=STYLED_ITEM('',(#45,#46),#47);
#13=STYLED_ITEM('',(#48),#49);
#14=STYLED_ITEM('',(#50),#51);
#15=STYLED_ITEM('',(#52),#53);
#16=STYLED_ITEM('',(#54,#55),#56);
#17=STYLED_ITEM('',(#57),#58);
#18=STYLED_ITEM('',(#59,#60),#61);
#19=STYLED_ITEM('',(#62,#63),#64);
#20=STYLED_ITEM('',(#65),#66);
#21=STYLED_ITEM('',(#67,#68),#69);
#22=STYLED_ITEM('',(#70,#71),#72);
#23=STYLED_ITEM('',(#73),#74);
#24=STYLED_ITEM('',(#75,#76),#77);
#25=STYLED_ITEM('',(#78),#79);
#26=STYLED_ITEM('',(#80,#81),#82);
#27=APPLICATION_CONTEXT(' ');
#28=PRODUCT_CATEGORY('part','NONE');
#29=PRODUCT_RELATED_PRODUCT_CATEGORY('detail',' ',(#83));
#30=PRODUCT_DEFINITION_SHAPE('NONE','NONE',#84);
#31=ADVANCED_BREP_SHAPE_REPRESENTATION('240[2]',(#61,#85),#6);
#34=UNCERTAINTY_MEASURE_WITH_UNIT(LENGTH_MEASURE(1.0E-006),#36,'','');
#36= (CONVERSION_BASED_UNIT('MILLIMETRE',#88)LENGTH_UNIT()NAMED_UNIT(#91));
#37= (NAMED_UNIT(#93)PLANE_ANGLE_UNIT()SI_UNIT($,.RADIAN.));
#38= (NAMED_UNIT(#93)SOLID_ANGLE_UNIT()SI_UNIT($,.STERADIAN.));
#40=PRESENTATION_STYLE_ASSIGNMENT((#99));
#41=PRESENTATION_STYLE_ASSIGNMENT((#100));
#42=ADVANCED_FACE('240[2]',(#101),#102,.T.);
#43=PRESENTATION_STYLE_ASSIGNMENT((#103));
#44=EDGE_CURVE('240[2]',#104,#104,#105,.T.);
#45=PRESENTATION_STYLE_ASSIGNMENT((#106));
#46=PRESENTATION_STYLE_ASSIGNMENT((#107));
#47=ADVANCED_FACE('240[2]',(#108,#109),#110,.F.);
#48=PRESENTATION_STYLE_ASSIGNMENT((#111));
#49=EDGE_CURVE('240[2]',#112,#112,#113,.T.);
#50=PRESENTATION_STYLE_ASSIGNMENT((#114));
#51=EDGE_CURVE('240[2]',#115,#116,#117,.T.);
#52=PRESENTATION_STYLE_ASSIGNMENT((#118));
#53=EDGE_CURVE('240[2]',#119,#119,#120,.T.);
#54=PRESENTATION_STYLE_ASSIGNMENT((#121));
#55=PRESENTATION_STYLE_ASSIGNMENT((#122));
#56=ADVANCED_FACE('240[2]',(#123,#124),#125,.T.);
#57=PRESENTATION_STYLE_ASSIGNMENT((#126));
#58=EDGE_CURVE('240[2]',#116,#115,#127,.T.);
#59=PRESENTATION_STYLE_ASSIGNMENT((#128));
#60=PRESENTATION_STYLE_ASSIGNMENT((#129));
#61=MANIFOLD_SOLID_BREP('240[2]',#130);
#62=PRESENTATION_STYLE_ASSIGNMENT((#131));
#63=PRESENTATION_STYLE_ASSIGNMENT((#132));
#64=ADVANCED_FACE('240[2]',(#133,#134),#135,.F.);
#65=PRESENTATION_STYLE_ASSIGNMENT((#136));
#66=EDGE_CURVE('240[2]',#137,#137,#138,.T.);
#67=PRESENTATION_STYLE_ASSIGNMENT((#139));
#68=PRESENTATION_STYLE_ASSIGNMENT((#140));
#69=ADVANCED_FACE('240[2]',(#141),#142,.T.);
#70=PRESENTATION_STYLE_ASSIGNMENT((#143));
#71=PRESENTATION_STYLE_ASSIGNMENT((#144));
#72=ADVANCED_FACE('240[2]',(#145,#146,#147),#148,.T.);
#73=PRESENTATION_STYLE_ASSIGNMENT((#149));
#74=EDGE_CURVE('240[2]',#150,#150,#151,.T.);
#75=PRESENTATION_STYLE_ASSIGNMENT((#152));
#76=PRESENTATION_STYLE_ASSIGNMENT((#153));
#77=ADVANCED_FACE('240[2]',(#154,#155),#156,.T.);
#78=PRESENTATION_STYLE_ASSIGNMENT((#157));
#79=EDGE_CURVE('240[2]',#158,#158,#159,.T.);
#80=PRESENTATION_STYLE_ASSIGNMENT((#160));
#81=PRESENTATION_STYLE_ASSIGNMENT((#161));
#82=ADVANCED_FACE('240[2]',(#162),#163,.F.);
#83=PRODUCT('240[2]','240[2]','PART-240[2]-DESC',(#164));
#84=PRODUCT_DEFINITION('NONE','NONE',#165,#2);
#85=AXIS2_PLACEMENT_3D('',#166,#167,#168);
#88=LENGTH_MEASURE_WITH_UNIT(LENGTH_MEASURE(1.0),#169);
#91=DIMENSIONAL_EXPONENTS(1.0,0.0,0.0,0.0,0.0,0.0,0.0);
#93=DIMENSIONAL_EXPONENTS(0.0,0.0,0.0,0.0,0.0,0.0,0.0);
#99=SURFACE_STYLE_USAGE(.BOTH.,#170);
#100=CURVE_STYLE('',#171,POSITIVE_LENGTH_MEASURE(1000.0),#172);
#101=FACE_OUTER_BOUND('',#173,.T.);
#102=PLANE('',#174);
#103=CURVE_STYLE('',#175,POSITIVE_LENGTH_MEASURE(1000.0),#176);
#104=VERTEX_POINT('',#177);
#105=CIRCLE('',#178,15.0);
#106=SURFACE_STYLE_USAGE(.BOTH.,#179);
#107=CURVE_STYLE('',#180,POSITIVE_LENGTH_MEASURE(1000.0),#181);
#108=FACE_BOUND('',#182,.T.);
#109=FACE_BOUND('',#183,.T.);
#110=CYLINDRICAL_SURFACE('',#184,3.1);
#111=CURVE_STYLE('',#185,POSITIVE_LENGTH_MEASURE(1000.0),#186);
#112=VERTEX_POINT('',#187);
#113=CIRCLE('',#188,3.1);
#114=CURVE_STYLE('',#189,POSITIVE_LENGTH_MEASURE(1000.0),#190);
#115=VERTEX_POINT('',#191);
#116=VERTEX_POINT('',#192);
#117=B_SPLINE_CURVE_WITH_KNOTS('',3,(#193,#194,#195,#196,#197,#198,#199,#200,#201,#202,#203,#204,#205,#206,#207,#208,#209,#210,#211,#212,#213,#214,#215,#216,#217,#218,#219,#220,#221,#222,#223,#224,#225,#226,#227),.UNSPECIFIED.,.F.,.F.,(4,2,2,2,2,2,2,2,3,2,2,2,2,2,2,2,4),(14.1389038249856,14.7278678136236,15.3168318022617,15.9057957908998,16.4947597795379,17.0840377763153,17.6733157730926,18.26259376987,18.8518717666474,19.4411497634248,20.0304277602022,20.6197057569795,21.2089837537569,21.797947742395,22.3869117310331,22.9758757196712,23.5648397083092),.UNSPECIFIED.);
#118=CURVE_STYLE('',#228,POSITIVE_LENGTH_MEASURE(1000.0),#229);
#119=VERTEX_POINT('',#230);
#120=CIRCLE('',#231,9.0);
#121=SURFACE_STYLE_USAGE(.BOTH.,#232);
#122=CURVE_STYLE('',#233,POSITIVE_LENGTH_MEASURE(1000.0),#234);
#123=FACE_BOUND('',#235,.T.);
#124=FACE_BOUND('',#236,.T.);
#125=CONICAL_SURFACE('',#237,14.0,0.7853981625);
#126=CURVE_STYLE('',#238,POSITIVE_LENGTH_MEASURE(1000.0),#239);
#127=B_SPLINE_CURVE_WITH_KNOTS('',3,(#240,#241,#242,#243,#244,#245,#246,#247,#248,#249,#250,#251,#252,#253,#254,#255,#256,#257,#258,#259,#260,#261,#262,#263,#264,#265,#266,#267,#268,#269,#270,#271,#272,#273),.UNSPECIFIED.,.F.,.F.,(4,2,2,2,2,2,2,2,2,2,2,2,2,2,2,2,4),(4.71296794166185,5.30193193029993,5.89089591893801,6.47985990757609,7.06882389621417,7.65810189299156,8.24737988976894,8.83665788654632,9.4259358833237,10.0152138801011,10.6044918768785,11.1937698736559,11.7830478704332,12.3720118590713,12.9609758477094,13.5499398363475,14.1389038249856),.UNSPECIFIED.);
#128=SURFACE_STYLE_USAGE(.BOTH.,#274);
#129=CURVE_STYLE('',#275,POSITIVE_LENGTH_MEASURE(1000.0),#276);
#130=CLOSED_SHELL('',(#47,#69,#72,#82,#77,#56,#42,#64));
#131=SURFACE_STYLE_USAGE(.BOTH.,#277);
#132=CURVE_STYLE('',#278,POSITIVE_LENGTH_MEASURE(1000.0),#279);
#133=FACE_BOUND('',#280,.T.);
#134=FACE_OUTER_BOUND('',#281,.T.);
#135=PLANE('',#282);
#136=CURVE_STYLE('',#283,POSITIVE_LENGTH_MEASURE(1000.0),#284);
#137=VERTEX_POINT('',#285);
#138=CIRCLE('',#286,13.0);
#139=SURFACE_STYLE_USAGE(.BOTH.,#287);
#140=CURVE_STYLE('',#288,POSITIVE_LENGTH_MEASURE(1000.0),#289);
#141=FACE_OUTER_BOUND('',#290,.T.);
#142=PLANE('',#291);
#143=SURFACE_STYLE_USAGE(.BOTH.,#292);
#144=CURVE_STYLE('',#293,POSITIVE_LENGTH_MEASURE(1000.0),#294);
#145=FACE_BOUND('',#295,.T.);
#146=FACE_BOUND('',#296,.T.);
#147=FACE_BOUND('',#297,.T.);
#148=CYLINDRICAL_SURFACE('',#298,9.0);
#149=CURVE_STYLE('',#299,POSITIVE_LENGTH_MEASURE(1000.0),#300);
#150=VERTEX_POINT('',#301);
#151=CIRCLE('',#302,15.0);
#152=SURFACE_STYLE_USAGE(.BOTH.,#303);
#153=CURVE_STYLE('',#304,POSITIVE_LENGTH_MEASURE(1000.0),#305);
#154=FACE_BOUND('',#306,.T.);
#155=FACE_BOUND('',#307,.T.);
#156=CYLINDRICAL_SURFACE('',#308,15.0);
#157=CURVE_STYLE('',#309,POSITIVE_LENGTH_MEASURE(1000.0),#310);
#158=VERTEX_POINT('',#311);
#159=CIRCLE('',#312,9.0);
#160=SURFACE_STYLE_USAGE(.BOTH.,#313);
#161=CURVE_STYLE('',#314,POSITIVE_LENGTH_MEASURE(1000.0),#315);
#162=FACE_OUTER_BOUND('',#316,.T.);
#163=PLANE('',#317);
#164=PRODUCT_CONTEXT('',#27,'mechanical');
#165=PRODUCT_DEFINITION_FORMATION_WITH_SPECIFIED_SOURCE(' ','NONE',#83,.NOT_KNOWN.);
#166=CARTESIAN_POINT('',(0.0,0.0,0.0));
#167=DIRECTION('',(0.0,0.0,1.0));
#168=DIRECTION('',(1.0,0.0,0.0));
#169= (NAMED_UNIT(#91)LENGTH_UNIT()SI_UNIT(.MILLI.,.METRE.));
#170=SURFACE_SIDE_STYLE('',(#319));
#171=DRAUGHTING_PRE_DEFINED_CURVE_FONT('continuous');
#172=COLOUR_RGB('',0.501960813999176,0.501960813999176,0.501960813999176);
#173=EDGE_LOOP('',(#320));
#174=AXIS2_PLACEMENT_3D('',#321,#322,#323);
#175=DRAUGHTING_PRE_DEFINED_CURVE_FONT('continuous');
#176=COLOUR_RGB('',0.501960813999176,0.501960813999176,0.501960813999176);
#177=CARTESIAN_POINT('',(15.0,-1.83691E-015,-33.0));
#178=AXIS2_PLACEMENT_3D('',#324,#325,#326);
#179=SURFACE_SIDE_STYLE('',(#327));
#180=DRAUGHTING_PRE_DEFINED_CURVE_FONT('continuous');
#181=COLOUR_RGB('',0.501960813999176,0.501960813999176,0.501960813999176);
#182=EDGE_LOOP('',(#328,#329));
#183=EDGE_LOOP('',(#330));
#184=AXIS2_PLACEMENT_3D('',#331,#332,#333);
#185=DRAUGHTING_PRE_DEFINED_CURVE_FONT('continuous');
#186=COLOUR_RGB('',0.501960813999176,0.501960813999176,0.501960813999176);
#187=CARTESIAN_POINT('',(3.1,6.5,8.0));
#188=AXIS2_PLACEMENT_3D('',#334,#335,#336);
#189=DRAUGHTING_PRE_DEFINED_CURVE_FONT('continuous');
#190=COLOUR_RGB('',0.501960813999176,0.501960813999176,0.501960813999176);
#191=CARTESIAN_POINT('',(-5.69460761603519E-016,9.0,4.9));
#192=CARTESIAN_POINT('',(1.8982025386784E-016,9.0,11.1));
#193=CARTESIAN_POINT('',(8.07687250414801E-015,9.0,4.9));
#194=CARTESIAN_POINT('',(0.196321329546026,9.0,4.9));
#195=CARTESIAN_POINT('',(0.398844760364974,8.99341286197938,4.91895069715993));
#196=CARTESIAN_POINT('',(0.800700227922879,8.96657299049482,4.99819702606452));
#197=CARTESIAN_POINT('',(1.00003775559935,8.94633711556731,5.0584705207154));
#198=CARTESIAN_POINT('',(1.38148344067403,8.89542167642684,5.21716429249745));
#199=CARTESIAN_POINT('',(1.56392442769274,8.86473988945594,5.31571060829044));
#200=CARTESIAN_POINT('',(1.900857092495,8.79864848926023,5.54276344921295));
#201=CARTESIAN_POINT('',(2.05534901090007,8.76329849632868,5.67128696754347));
#202=CARTESIAN_POINT('',(2.32878590493211,8.69463268252028,5.94472386157551));
#203=CARTESIAN_POINT('',(2.45731827541964,8.65884612823431,6.09925035455979));
#204=CARTESIAN_POINT('',(2.68433949747045,8.59117866439943,6.43616376160374));
#205=CARTESIAN_POINT('',(2.78284854201351,8.55936646287421,6.61855086497205));
#206=CARTESIAN_POINT('',(2.94150040851208,8.50614932460306,6.99988891269025));
#207=CARTESIAN_POINT('',(3.00176905641273,8.48476019748996,7.19917429340499));
#208=CARTESIAN_POINT('',(3.08103051574255,8.45630084853037,7.60101348587568));
#209=CARTESIAN_POINT('',(3.1,8.44926032265547,7.80357400107421));
#210=CARTESIAN_POINT('',(3.1,8.44926032265547,8.0));
#211=CARTESIAN_POINT('',(3.1,8.44926032265547,8.19642599892579));
#212=CARTESIAN_POINT('',(3.08103051574255,8.45630084853037,8.39898651412432));
#213=CARTESIAN_POINT('',(3.00176905641274,8.48476019748996,8.80082570659501));
#214=CARTESIAN_POINT('',(2.94150040851208,8.50614932460306,9.00011108730975));
#215=CARTESIAN_POINT('',(2.78284854201351,8.55936646287421,9.38144913502795));
#216=CARTESIAN_POINT('',(2.68433949747045,8.59117866439943,9.56383623839626));
#217=CARTESIAN_POINT('',(2.45731827541964,8.65884612823431,9.90074964544021));
#218=CARTESIAN_POINT('',(2.32878590493211,8.69463268252028,10.0552761384245));
#219=CARTESIAN_POINT('',(2.05534901090007,8.76329849632868,10.3287130324565));
#220=CARTESIAN_POINT('',(1.900857092495,8.79864848926023,10.457236550787));
#221=CARTESIAN_POINT('',(1.56392442769273,8.86473988945594,10.6842893917096));
#222=CARTESIAN_POINT('',(1.38148344067403,8.89542167642684,10.7828357075025));
#223=CARTESIAN_POINT('',(1.00003775559936,8.94633711556731,10.9415294792846));
#224=CARTESIAN_POINT('',(0.800700227922881,8.96657299049482,11.0018029739355));
#225=CARTESIAN_POINT('',(0.398844760364976,8.99341286197938,11.0810493028401));
#226=CARTESIAN_POINT('',(0.196321329546027,9.0,11.1));
#227=CARTESIAN_POINT('',(1.34151948808873E-015,9.0,11.1));
#228=DRAUGHTING_PRE_DEFINED_CURVE_FONT('continuous');
#229=COLOUR_RGB('',0.501960813999176,0.501960813999176,0.501960813999176);
#230=CARTESIAN_POINT('',(9.0,0.0,0.0));
#231=AXIS2_PLACEMENT_3D('',#337,#338,#339);
#232=SURFACE_SIDE_STYLE('',(#340));
#233=DRAUGHTING_PRE_DEFINED_CURVE_FONT('continuous');
#234=COLOUR_RGB('',0.501960813999176,0.501960813999176,0.501960813999176);
#235=EDGE_LOOP('',(#341));
#236=EDGE_LOOP('',(#342));
#237=AXIS2_PLACEMENT_3D('',#343,#344,#345);
#238=DRAUGHTING_PRE_DEFINED_CURVE_FONT('continuous');
#239=COLOUR_RGB('',0.501960813999176,0.501960813999176,0.501960813999176);
#240=CARTESIAN_POINT('',(4.44089209850063E-016,9.0,11.1));
#241=CARTESIAN_POINT('',(-0.196321329546027,9.0,11.1));
#242=CARTESIAN_POINT('',(-0.398844760364975,8.99341286197938,11.0810493028401));
#243=CARTESIAN_POINT('',(-0.80070022792288,8.96657299049482,11.0018029739355));
#244=CARTESIAN_POINT('',(-1.00003775559935,8.94633711556731,10.9415294792846));
#245=CARTESIAN_POINT('',(-1.38148344067403,8.89542167642684,10.7828357075025));
#246=CARTESIAN_POINT('',(-1.56392442769274,8.86473988945594,10.6842893917096));
#247=CARTESIAN_POINT('',(-1.900857092495,8.79864848926023,10.457236550787));
#248=CARTESIAN_POINT('',(-2.05534901090007,8.76329849632868,10.3287130324565));
#249=CARTESIAN_POINT('',(-2.32878590493211,8.69463268252028,10.0552761384245));
#250=CARTESIAN_POINT('',(-2.45731827541964,8.65884612823431,9.90074964544021));
#251=CARTESIAN_POINT('',(-2.68433949747045,8.59117866439943,9.56383623839626));
#252=CARTESIAN_POINT('',(-2.78284854201351,8.55936646287421,9.38144913502795));
#253=CARTESIAN_POINT('',(-2.94150040851208,8.50614932460306,9.00011108730975));
#254=CARTESIAN_POINT('',(-3.00176905641273,8.48476019748996,8.80082570659501));
#255=CARTESIAN_POINT('',(-3.08103051574255,8.45630084853037,8.39898651412433));
#256=CARTESIAN_POINT('',(-3.1,8.44926032265547,8.19642599892579));
#257=CARTESIAN_POINT('',(-3.1,8.44926032265547,7.80357400107421));
#258=CARTESIAN_POINT('',(-3.08103051574255,8.45630084853037,7.60101348587568));
#259=CARTESIAN_POINT('',(-3.00176905641273,8.48476019748996,7.19917429340499));
#260=CARTESIAN_POINT('',(-2.94150040851208,8.50614932460305,6.99988891269025));
#261=CARTESIAN_POINT('',(-2.78284854201351,8.55936646287421,6.61855086497205));
#262=CARTESIAN_POINT('',(-2.68433949747045,8.59117866439943,6.43616376160374));
#263=CARTESIAN_POINT('',(-2.45731827541964,8.65884612823431,6.09925035455979));
#264=CARTESIAN_POINT('',(-2.32878590493211,8.69463268252028,5.94472386157552));
#265=CARTESIAN_POINT('',(-2.05534901090007,8.76329849632868,5.67128696754347));
#266=CARTESIAN_POINT('',(-1.900857092495,8.79864848926023,5.54276344921295));
#267=CARTESIAN_POINT('',(-1.56392442769274,8.86473988945594,5.31571060829044));
#268=CARTESIAN_POINT('',(-1.38148344067403,8.89542167642684,5.21716429249745));
#269=CARTESIAN_POINT('',(-1.00003775559935,8.94633711556731,5.0584705207154));
#270=CARTESIAN_POINT('',(-0.80070022792288,8.96657299049482,4.99819702606452));
#271=CARTESIAN_POINT('',(-0.398844760364976,8.99341286197938,4.91895069715993));
#272=CARTESIAN_POINT('',(-0.196321329546027,9.0,4.9));
#273=CARTESIAN_POINT('',(8.07687250414801E-015,9.0,4.9));
#274=SURFACE_SIDE_STYLE('',(#346));
#275=DRAUGHTING_PRE_DEFINED_CURVE_FONT('continuous');
#276=COLOUR_RGB('',0.501960813999176,0.501960813999176,0.501960813999176);
#277=SURFACE_SIDE_STYLE('',(#347));
#278=DRAUGHTING_PRE_DEFINED_CURVE_FONT('continuous');
#279=COLOUR_RGB('',0.501960813999176,0.501960813999176,0.501960813999176);
#280=EDGE_LOOP('',(#348));
#281=EDGE_LOOP('',(#349));
#282=AXIS2_PLACEMENT_3D('',#350,#351,#352);
#283=DRAUGHTING_PRE_DEFINED_CURVE_FONT('continuous');
#284=COLOUR_RGB('',0.501960813999176,0.501960813999176,0.501960813999176);
#285=CARTESIAN_POINT('',(13.0,1.591988E-015,-35.0));
#286=AXIS2_PLACEMENT_3D('',#353,#354,#355);
#287=SURFACE_SIDE_STYLE('',(#356));
#288=DRAUGHTING_PRE_DEFINED_CURVE_FONT('continuous');
#289=COLOUR_RGB('',0.501960813999176,0.501960813999176,0.501960813999176);
#290=EDGE_LOOP('',(#357));
#291=AXIS2_PLACEMENT_3D('',#358,#359,#360);
#292=SURFACE_SIDE_STYLE('',(#361));
#293=DRAUGHTING_PRE_DEFINED_CURVE_FONT('continuous');
#294=COLOUR_RGB('',0.501960813999176,0.501960813999176,0.501960813999176);
#295=EDGE_LOOP('',(#362,#363));
#296=EDGE_LOOP('',(#364));
#297=EDGE_LOOP('',(#365));
#298=AXIS2_PLACEMENT_3D('',#366,#367,#368);
#299=DRAUGHTING_PRE_DEFINED_CURVE_FONT('continuous');
#300=COLOUR_RGB('',0.501960813999176,0.501960813999176,0.501960813999176);
#301=CARTESIAN_POINT('',(15.0,1.83691E-015,0.0));
#302=AXIS2_PLACEMENT_3D('',#369,#370,#371);
#303=SURFACE_SIDE_STYLE('',(#372));
#304=DRAUGHTING_PRE_DEFINED_CURVE_FONT('continuous');
#305=COLOUR_RGB('',0.501960813999176,0.501960813999176,0.501960813999176);
#306=EDGE_LOOP('',(#373));
#307=EDGE_LOOP('',(#374));
#308=AXIS2_PLACEMENT_3D('',#375,#376,#377);
#309=DRAUGHTING_PRE_DEFINED_CURVE_FONT('continuous');
#310=COLOUR_RGB('',0.501960813999176,0.501960813999176,0.501960813999176);
#311=CARTESIAN_POINT('',(9.0,0.0,20.0));
#312=AXIS2_PLACEMENT_3D('',#378,#379,#380);
#313=SURFACE_SIDE_STYLE('',(#381));
#314=DRAUGHTING_PRE_DEFINED_CURVE_FONT('continuous');
#315=COLOUR_RGB('',0.501960813999176,0.501960813999176,0.501960813999176);
#316=EDGE_LOOP('',(#382));
#317=AXIS2_PLACEMENT_3D('',#383,#384,#385);
#319=SURFACE_STYLE_FILL_AREA(#386);
#320=ORIENTED_EDGE('',*,*,#66,.F.);
#321=CARTESIAN_POINT('',(0.0,0.0,-35.0));
#322=DIRECTION('',(0.0,0.0,-1.0));
#323=DIRECTION('',(0.0,-1.0,0.0));
#324=CARTESIAN_POINT('',(0.0,0.0,-33.0));
#325=DIRECTION('',(0.0,0.0,-1.0));
#326=DIRECTION('',(-1.0,0.0,0.0));
#327=SURFACE_STYLE_FILL_AREA(#387);
#328=ORIENTED_EDGE('',*,*,#58,.F.);
#329=ORIENTED_EDGE('',*,*,#51,.F.);
#330=ORIENTED_EDGE('',*,*,#49,.F.);
#331=CARTESIAN_POINT('',(0.0,9.0,8.0));
#332=DIRECTION('',(0.0,1.0,-0.0));
#333=DIRECTION('',(1.0,0.0,0.0));
#334=CARTESIAN_POINT('',(0.0,6.5,8.0));
#335=DIRECTION('',(-0.0,1.0,0.0));
#336=DIRECTION('',(1.0,0.0,0.0));
#337=CARTESIAN_POINT('',(0.0,0.0,0.0));
#338=DIRECTION('',(0.0,0.0,-1.0));
#339=DIRECTION('',(1.0,0.0,0.0));
#340=SURFACE_STYLE_FILL_AREA(#388);
#341=ORIENTED_EDGE('',*,*,#44,.T.);
#342=ORIENTED_EDGE('',*,*,#66,.T.);
#343=CARTESIAN_POINT('',(0.0,0.0,-34.0));
#344=DIRECTION('',(-0.0,-0.0,1.0));
#345=DIRECTION('',(-1.0,0.0,0.0));
#346=SURFACE_STYLE_FILL_AREA(#389);
#347=SURFACE_STYLE_FILL_AREA(#390);
#348=ORIENTED_EDGE('',*,*,#53,.T.);
#349=ORIENTED_EDGE('',*,*,#74,.F.);
#350=CARTESIAN_POINT('',(0.0,0.0,0.0));
#351=DIRECTION('',(0.0,0.0,-1.0));
#352=DIRECTION('',(0.0,-1.0,0.0));
#353=CARTESIAN_POINT('',(0.0,0.0,-35.0));
#354=DIRECTION('',(0.0,0.0,1.0));
#355=DIRECTION('',(-1.0,0.0,0.0));
#356=SURFACE_STYLE_FILL_AREA(#391);
#357=ORIENTED_EDGE('',*,*,#49,.T.);
#358=CARTESIAN_POINT('',(0.549148004350076,6.5,4.94902696352158));
#359=DIRECTION('',(0.0,1.0,0.0));
#360=DIRECTION('',(1.0,0.0,-0.0));
#361=SURFACE_STYLE_FILL_AREA(#392);
#362=ORIENTED_EDGE('',*,*,#58,.T.);
#363=ORIENTED_EDGE('',*,*,#51,.T.);
#364=ORIENTED_EDGE('',*,*,#79,.T.);
#365=ORIENTED_EDGE('',*,*,#53,.F.);
#366=CARTESIAN_POINT('',(0.0,0.0,0.0));
#367=DIRECTION('',(0.0,0.0,-1.0));
#368=DIRECTION('',(1.0,0.0,0.0));
#369=CARTESIAN_POINT('',(0.0,0.0,0.0));
#370=DIRECTION('',(0.0,0.0,-1.0));
#371=DIRECTION('',(-1.0,0.0,0.0));
#372=SURFACE_STYLE_FILL_AREA(#393);
#373=ORIENTED_EDGE('',*,*,#44,.F.);
#374=ORIENTED_EDGE('',*,*,#74,.T.);
#375=CARTESIAN_POINT('',(0.0,0.0,0.0));
#376=DIRECTION('',(-0.0,0.0,-1.0));
#377=DIRECTION('',(-1.0,0.0,0.0));
#378=CARTESIAN_POINT('',(0.0,0.0,20.0));
#379=DIRECTION('',(0.0,0.0,-1.0));
#380=DIRECTION('',(1.0,0.0,0.0));
#381=SURFACE_STYLE_FILL_AREA(#394);
#382=ORIENTED_EDGE('',*,*,#79,.F.);
#383=CARTESIAN_POINT('',(1.59430065779054,-8.85766365429218,20.0));
#384=DIRECTION('',(0.0,0.0,-1.0));
#385=DIRECTION('',(0.0,-1.0,0.0));
#386=FILL_AREA_STYLE('',(#395));
#387=FILL_AREA_STYLE('',(#396));
#388=FILL_AREA_STYLE('',(#397));
#389=FILL_AREA_STYLE('',(#398));
#390=FILL_AREA_STYLE('',(#399));
#391=FILL_AREA_STYLE('',(#400));
#392=FILL_AREA_STYLE('',(#401));
#393=FILL_AREA_STYLE('',(#402));
#394=FILL_AREA_STYLE('',(#403));
#395=FILL_AREA_STYLE_COLOUR('',#404);
#396=FILL_AREA_STYLE_COLOUR('',#405);
#397=FILL_AREA_STYLE_COLOUR('',#406);
#398=FILL_AREA_STYLE_COLOUR('',#407);
#399=FILL_AREA_STYLE_COLOUR('',#408);
#400=FILL_AREA_STYLE_COLOUR('',#409);
#401=FILL_AREA_STYLE_COLOUR('',#410);
#402=FILL_AREA_STYLE_COLOUR('',#411);
#403=FILL_AREA_STYLE_COLOUR('',#412);
#404=COLOUR_RGB('',0.501960813999176,0.501960813999176,0.501960813999176);
#405=COLOUR_RGB('',0.501960813999176,0.501960813999176,0.501960813999176);
#406=COLOUR_RGB('',0.501960813999176,0.501960813999176,0.501960813999176);
#407=COLOUR_RGB('',0.501960813999176,0.501960813999176,0.501960813999176);
#408=COLOUR_RGB('',0.501960813999176,0.501960813999176,0.501960813999176);
#409=COLOUR_RGB('',0.501960813999176,0.501960813999176,0.501960813999176);
#410=COLOUR_RGB('',0.501960813999176,0.501960813999176,0.501960813999176);
#411=COLOUR_RGB('',0.501960813999176,0.501960813999176,0.501960813999176);
#412=COLOUR_RGB('',0.501960813999176,0.501960813999176,0.501960813999176);
ENDSEC;
END-ISO-10303-21;
