ISO-10303-21;
HEADER;
FILE_DESCRIPTION((''),'1');
FILE_NAME('T:/02_3D_Field-HP\X2\FF71FF6FFF8CFF9F5916\X0\/02_Step_Field-HP\X2\FF71FF6FFF8CFF9F5916\X0\/15_\X2\FF7DFF8FFF70FF84FF80FF9EFF9DFF8AFF9FFF70\X0\/\X2\FF7DFF8FFF70FF84FF80FF9EFF9DFF8AFF9FFF70\X0\FMH/BDV50-SDF57-76-220.stp','2023-10-02T02:47:13',(''),(''),'Spatial Interop R21 SP3','Kubotek KeyCreator 2011 V10.0.2 (22737)',' ');
FILE_SCHEMA(('automotive_design'));
ENDSEC;
DATA;
#1=MECHANICAL_DESIGN_GEOMETRIC_PRESENTATION_REPRESENTATION(' ',(#10,#11,#12,#13,#14,#15,#16,#17,#18,#19,#20,#21,#22,#23,#24,#25,#26,#27,#28,#29,#30,#31,#32,#33,#34,#35,#36,#37,#38,#39),#6);
#2=PRODUCT_DEFINITION_CONTEXT('',#40,'design');
#3=APPLICATION_PROTOCOL_DEFINITION('INTERNATIONAL STANDARD','automotive_design',1994,#40);
#4=PRODUCT_CATEGORY_RELATIONSHIP('NONE','NONE',#41,#42);
#5=SHAPE_DEFINITION_REPRESENTATION(#43,#44);
#6= (GEOMETRIC_REPRESENTATION_CONTEXT(3)GLOBAL_UNCERTAINTY_ASSIGNED_CONTEXT((#47))GLOBAL_UNIT_ASSIGNED_CONTEXT((#49,#50,#51))REPRESENTATION_CONTEXT('NONE','WORKSPACE'));
#10=STYLED_ITEM('',(#53,#54),#55);
#11=STYLED_ITEM('',(#56,#57),#58);
#12=STYLED_ITEM('',(#59,#60),#61);
#13=STYLED_ITEM('',(#62,#63),#64);
#14=STYLED_ITEM('',(#65,#66),#67);
#15=STYLED_ITEM('',(#68,#69),#70);
#16=STYLED_ITEM('',(#71),#72);
#17=STYLED_ITEM('',(#73),#74);
#18=STYLED_ITEM('',(#75),#76);
#19=STYLED_ITEM('',(#77,#78),#79);
#20=STYLED_ITEM('',(#80),#81);
#21=STYLED_ITEM('',(#82),#83);
#22=STYLED_ITEM('',(#84,#85),#86);
#23=STYLED_ITEM('',(#87),#88);
#24=STYLED_ITEM('',(#89),#90);
#25=STYLED_ITEM('',(#91,#92),#93);
#26=STYLED_ITEM('',(#94,#95),#96);
#27=STYLED_ITEM('',(#97,#98),#99);
#28=STYLED_ITEM('',(#100),#101);
#29=STYLED_ITEM('',(#102,#103),#104);
#30=STYLED_ITEM('',(#105,#106),#107);
#31=STYLED_ITEM('',(#108),#109);
#32=STYLED_ITEM('',(#110),#111);
#33=STYLED_ITEM('',(#112,#113),#114);
#34=STYLED_ITEM('',(#115),#116);
#35=STYLED_ITEM('',(#117,#118),#119);
#36=STYLED_ITEM('',(#120),#121);
#37=STYLED_ITEM('',(#122),#123);
#38=STYLED_ITEM('',(#124),#125);
#39=STYLED_ITEM('',(#126,#127),#128);
#40=APPLICATION_CONTEXT(' ');
#41=PRODUCT_CATEGORY('part','NONE');
#42=PRODUCT_RELATED_PRODUCT_CATEGORY('detail',' ',(#129));
#43=PRODUCT_DEFINITION_SHAPE('NONE','NONE',#130);
#44=ADVANCED_BREP_SHAPE_REPRESENTATION('240[2]',(#93,#131),#6);
#47=UNCERTAINTY_MEASURE_WITH_UNIT(LENGTH_MEASURE(1.0E-006),#49,'','');
#49= (CONVERSION_BASED_UNIT('MILLIMETRE',#134)LENGTH_UNIT()NAMED_UNIT(#137));
#50= (NAMED_UNIT(#139)PLANE_ANGLE_UNIT()SI_UNIT($,.RADIAN.));
#51= (NAMED_UNIT(#139)SOLID_ANGLE_UNIT()SI_UNIT($,.STERADIAN.));
#53=PRESENTATION_STYLE_ASSIGNMENT((#145));
#54=PRESENTATION_STYLE_ASSIGNMENT((#146));
#55=ADVANCED_FACE('240[2]',(#147,#148),#149,.T.);
#56=PRESENTATION_STYLE_ASSIGNMENT((#150));
#57=PRESENTATION_STYLE_ASSIGNMENT((#151));
#58=ADVANCED_FACE('240[2]',(#152,#153),#154,.T.);
#59=PRESENTATION_STYLE_ASSIGNMENT((#155));
#60=PRESENTATION_STYLE_ASSIGNMENT((#156));
#61=ADVANCED_FACE('240[2]',(#157,#158),#159,.T.);
#62=PRESENTATION_STYLE_ASSIGNMENT((#160));
#63=PRESENTATION_STYLE_ASSIGNMENT((#161));
#64=ADVANCED_FACE('240[2]',(#162),#163,.T.);
#65=PRESENTATION_STYLE_ASSIGNMENT((#164));
#66=PRESENTATION_STYLE_ASSIGNMENT((#165));
#67=ADVANCED_FACE('240[2]',(#166,#167),#168,.T.);
#68=PRESENTATION_STYLE_ASSIGNMENT((#169));
#69=PRESENTATION_STYLE_ASSIGNMENT((#170));
#70=ADVANCED_FACE('240[2]',(#171,#172),#173,.T.);
#71=PRESENTATION_STYLE_ASSIGNMENT((#174));
#72=EDGE_CURVE('240[2]',#175,#175,#176,.T.);
#73=PRESENTATION_STYLE_ASSIGNMENT((#177));
#74=EDGE_CURVE('240[2]',#178,#178,#179,.T.);
#75=PRESENTATION_STYLE_ASSIGNMENT((#180));
#76=EDGE_CURVE('240[2]',#181,#181,#182,.T.);
#77=PRESENTATION_STYLE_ASSIGNMENT((#183));
#78=PRESENTATION_STYLE_ASSIGNMENT((#184));
#79=ADVANCED_FACE('240[2]',(#185,#186),#187,.T.);
#80=PRESENTATION_STYLE_ASSIGNMENT((#188));
#81=EDGE_CURVE('240[2]',#189,#189,#190,.T.);
#82=PRESENTATION_STYLE_ASSIGNMENT((#191));
#83=EDGE_CURVE('240[2]',#192,#192,#193,.T.);
#84=PRESENTATION_STYLE_ASSIGNMENT((#194));
#85=PRESENTATION_STYLE_ASSIGNMENT((#195));
#86=ADVANCED_FACE('240[2]',(#196,#197),#198,.T.);
#87=PRESENTATION_STYLE_ASSIGNMENT((#199));
#88=EDGE_CURVE('240[2]',#200,#200,#201,.T.);
#89=PRESENTATION_STYLE_ASSIGNMENT((#202));
#90=EDGE_CURVE('240[2]',#203,#203,#204,.T.);
#91=PRESENTATION_STYLE_ASSIGNMENT((#205));
#92=PRESENTATION_STYLE_ASSIGNMENT((#206));
#93=MANIFOLD_SOLID_BREP('240[2]',#207);
#94=PRESENTATION_STYLE_ASSIGNMENT((#208));
#95=PRESENTATION_STYLE_ASSIGNMENT((#209));
#96=ADVANCED_FACE('240[2]',(#210,#211),#212,.T.);
#97=PRESENTATION_STYLE_ASSIGNMENT((#213));
#98=PRESENTATION_STYLE_ASSIGNMENT((#214));
#99=ADVANCED_FACE('240[2]',(#215,#216),#217,.T.);
#100=PRESENTATION_STYLE_ASSIGNMENT((#218));
#101=EDGE_CURVE('240[2]',#219,#219,#220,.T.);
#102=PRESENTATION_STYLE_ASSIGNMENT((#221));
#103=PRESENTATION_STYLE_ASSIGNMENT((#222));
#104=ADVANCED_FACE('240[2]',(#223,#224),#225,.T.);
#105=PRESENTATION_STYLE_ASSIGNMENT((#226));
#106=PRESENTATION_STYLE_ASSIGNMENT((#227));
#107=ADVANCED_FACE('240[2]',(#228,#229),#230,.T.);
#108=PRESENTATION_STYLE_ASSIGNMENT((#231));
#109=EDGE_CURVE('240[2]',#232,#232,#233,.T.);
#110=PRESENTATION_STYLE_ASSIGNMENT((#234));
#111=EDGE_CURVE('240[2]',#235,#235,#236,.T.);
#112=PRESENTATION_STYLE_ASSIGNMENT((#237));
#113=PRESENTATION_STYLE_ASSIGNMENT((#238));
#114=ADVANCED_FACE('240[2]',(#239,#240),#241,.T.);
#115=PRESENTATION_STYLE_ASSIGNMENT((#242));
#116=EDGE_CURVE('240[2]',#243,#243,#244,.T.);
#117=PRESENTATION_STYLE_ASSIGNMENT((#245));
#118=PRESENTATION_STYLE_ASSIGNMENT((#246));
#119=ADVANCED_FACE('240[2]',(#247,#248),#249,.T.);
#120=PRESENTATION_STYLE_ASSIGNMENT((#250));
#121=EDGE_CURVE('240[2]',#251,#251,#252,.T.);
#122=PRESENTATION_STYLE_ASSIGNMENT((#253));
#123=EDGE_CURVE('240[2]',#254,#254,#255,.T.);
#124=PRESENTATION_STYLE_ASSIGNMENT((#256));
#125=EDGE_CURVE('240[2]',#257,#257,#258,.T.);
#126=PRESENTATION_STYLE_ASSIGNMENT((#259));
#127=PRESENTATION_STYLE_ASSIGNMENT((#260));
#128=ADVANCED_FACE('240[2]',(#261),#262,.T.);
#129=PRODUCT('240[2]','240[2]','PART-240[2]-DESC',(#263));
#130=PRODUCT_DEFINITION('NONE','NONE',#264,#2);
#131=AXIS2_PLACEMENT_3D('',#265,#266,#267);
#134=LENGTH_MEASURE_WITH_UNIT(LENGTH_MEASURE(1.0),#268);
#137=DIMENSIONAL_EXPONENTS(1.0,0.0,0.0,0.0,0.0,0.0,0.0);
#139=DIMENSIONAL_EXPONENTS(0.0,0.0,0.0,0.0,0.0,0.0,0.0);
#145=SURFACE_STYLE_USAGE(.BOTH.,#269);
#146=CURVE_STYLE('',#270,POSITIVE_LENGTH_MEASURE(1000.0),#271);
#147=FACE_BOUND('',#272,.T.);
#148=FACE_BOUND('',#273,.T.);
#149=CYLINDRICAL_SURFACE('',#274,38.0000000449054);
#150=SURFACE_STYLE_USAGE(.BOTH.,#275);
#151=CURVE_STYLE('',#276,POSITIVE_LENGTH_MEASURE(1000.0),#277);
#152=FACE_BOUND('',#278,.T.);
#153=FACE_BOUND('',#279,.T.);
#154=CONICAL_SURFACE('',#280,47.5937735847382,1.04719755119662);
#155=SURFACE_STYLE_USAGE(.BOTH.,#281);
#156=CURVE_STYLE('',#282,POSITIVE_LENGTH_MEASURE(1000.0),#283);
#157=FACE_OUTER_BOUND('',#284,.T.);
#158=FACE_BOUND('',#285,.T.);
#159=PLANE('',#286);
#160=SURFACE_STYLE_USAGE(.BOTH.,#287);
#161=CURVE_STYLE('',#288,POSITIVE_LENGTH_MEASURE(1000.0),#289);
#162=FACE_OUTER_BOUND('',#290,.T.);
#163=PLANE('',#291);
#164=SURFACE_STYLE_USAGE(.BOTH.,#292);
#165=CURVE_STYLE('',#293,POSITIVE_LENGTH_MEASURE(1000.0),#294);
#166=FACE_OUTER_BOUND('',#295,.T.);
#167=FACE_BOUND('',#296,.T.);
#168=PLANE('',#297);
#169=SURFACE_STYLE_USAGE(.BOTH.,#298);
#170=CURVE_STYLE('',#299,POSITIVE_LENGTH_MEASURE(1000.0),#300);
#171=FACE_BOUND('',#301,.T.);
#172=FACE_BOUND('',#302,.T.);
#173=CYLINDRICAL_SURFACE('',#303,45.6249999999999);
#174=CURVE_STYLE('',#304,POSITIVE_LENGTH_MEASURE(1000.0),#305);
#175=VERTEX_POINT('',#306);
#176=CIRCLE('',#307,45.6249999999999);
#177=CURVE_STYLE('',#308,POSITIVE_LENGTH_MEASURE(1000.0),#309);
#178=VERTEX_POINT('',#310);
#179=CIRCLE('',#311,48.75);
#180=CURVE_STYLE('',#312,POSITIVE_LENGTH_MEASURE(1000.0),#313);
#181=VERTEX_POINT('',#314);
#182=CIRCLE('',#315,43.0000001910174);
#183=SURFACE_STYLE_USAGE(.BOTH.,#316);
#184=CURVE_STYLE('',#317,POSITIVE_LENGTH_MEASURE(1000.0),#318);
#185=FACE_BOUND('',#319,.T.);
#186=FACE_BOUND('',#320,.T.);
#187=CONICAL_SURFACE('',#321,47.5937735847382,1.04719755119659);
#188=CURVE_STYLE('',#322,POSITIVE_LENGTH_MEASURE(1000.0),#323);
#189=VERTEX_POINT('',#324);
#190=CIRCLE('',#325,46.4375471694767);
#191=CURVE_STYLE('',#326,POSITIVE_LENGTH_MEASURE(1000.0),#327);
#192=VERTEX_POINT('',#328);
#193=CIRCLE('',#329,34.9250000000001);
#194=SURFACE_STYLE_USAGE(.BOTH.,#330);
#195=CURVE_STYLE('',#331,POSITIVE_LENGTH_MEASURE(1000.0),#332);
#196=FACE_OUTER_BOUND('',#333,.T.);
#197=FACE_BOUND('',#334,.T.);
#198=PLANE('',#335);
#199=CURVE_STYLE('',#336,POSITIVE_LENGTH_MEASURE(1000.0),#337);
#200=VERTEX_POINT('',#338);
#201=CIRCLE('',#339,37.9999998987931);
#202=CURVE_STYLE('',#340,POSITIVE_LENGTH_MEASURE(1000.0),#341);
#203=VERTEX_POINT('',#342);
#204=CIRCLE('',#343,20.0865398924474);
#205=SURFACE_STYLE_USAGE(.BOTH.,#344);
#206=CURVE_STYLE('',#345,POSITIVE_LENGTH_MEASURE(1000.0),#346);
#207=CLOSED_SHELL('',(#64,#119,#114,#107,#104,#58,#67,#70,#86,#79,#99,#61,#96,#55,#128));
#208=SURFACE_STYLE_USAGE(.BOTH.,#347);
#209=CURVE_STYLE('',#348,POSITIVE_LENGTH_MEASURE(1000.0),#349);
#210=FACE_BOUND('',#350,.T.);
#211=FACE_BOUND('',#351,.T.);
#212=CONICAL_SURFACE('',#352,40.5000001910175,0.785398163397448);
#213=SURFACE_STYLE_USAGE(.BOTH.,#353);
#214=CURVE_STYLE('',#354,POSITIVE_LENGTH_MEASURE(1000.0),#355);
#215=FACE_BOUND('',#356,.T.);
#216=FACE_BOUND('',#357,.T.);
#217=CYLINDRICAL_SURFACE('',#358,48.7499999999998);
#218=CURVE_STYLE('',#359,POSITIVE_LENGTH_MEASURE(1000.0),#360);
#219=VERTEX_POINT('',#361);
#220=CIRCLE('',#362,48.7499999999998);
#221=SURFACE_STYLE_USAGE(.BOTH.,#363);
#222=CURVE_STYLE('',#364,POSITIVE_LENGTH_MEASURE(1000.0),#365);
#223=FACE_BOUND('',#366,.T.);
#224=FACE_BOUND('',#367,.T.);
#225=CYLINDRICAL_SURFACE('',#368,48.7499999999999);
#226=SURFACE_STYLE_USAGE(.BOTH.,#369);
#227=CURVE_STYLE('',#370,POSITIVE_LENGTH_MEASURE(1000.0),#371);
#228=FACE_OUTER_BOUND('',#372,.T.);
#229=FACE_BOUND('',#373,.T.);
#230=PLANE('',#374);
#231=CURVE_STYLE('',#375,POSITIVE_LENGTH_MEASURE(1000.0),#376);
#232=VERTEX_POINT('',#377);
#233=CIRCLE('',#378,48.7499999999999);
#234=CURVE_STYLE('',#379,POSITIVE_LENGTH_MEASURE(1000.0),#380);
#235=VERTEX_POINT('',#381);
#236=CIRCLE('',#382,34.9250000000001);
#237=SURFACE_STYLE_USAGE(.BOTH.,#383);
#238=CURVE_STYLE('',#384,POSITIVE_LENGTH_MEASURE(1000.0),#385);
#239=FACE_BOUND('',#386,.T.);
#240=FACE_BOUND('',#387,.T.);
#241=CYLINDRICAL_SURFACE('',#388,34.9250000000001);
#242=CURVE_STYLE('',#389,POSITIVE_LENGTH_MEASURE(1000.0),#390);
#243=VERTEX_POINT('',#391);
#244=CIRCLE('',#392,38.0000001910176);
#245=SURFACE_STYLE_USAGE(.BOTH.,#393);
#246=CURVE_STYLE('',#394,POSITIVE_LENGTH_MEASURE(1000.0),#395);
#247=FACE_BOUND('',#396,.T.);
#248=FACE_BOUND('',#397,.T.);
#249=CONICAL_SURFACE('',#398,27.5057699462237,0.144811713367222);
#250=CURVE_STYLE('',#399,POSITIVE_LENGTH_MEASURE(1000.0),#400);
#251=VERTEX_POINT('',#401);
#252=CIRCLE('',#402,46.4375471694764);
#253=CURVE_STYLE('',#403,POSITIVE_LENGTH_MEASURE(1000.0),#404);
#254=VERTEX_POINT('',#405);
#255=CIRCLE('',#406,45.6249999999999);
#256=CURVE_STYLE('',#407,POSITIVE_LENGTH_MEASURE(1000.0),#408);
#257=VERTEX_POINT('',#409);
#258=CIRCLE('',#410,48.7499999999999);
#259=SURFACE_STYLE_USAGE(.BOTH.,#411);
#260=CURVE_STYLE('',#412,POSITIVE_LENGTH_MEASURE(1000.0),#413);
#261=FACE_OUTER_BOUND('',#414,.T.);
#262=PLANE('',#415);
#263=PRODUCT_CONTEXT('',#40,'mechanical');
#264=PRODUCT_DEFINITION_FORMATION_WITH_SPECIFIED_SOURCE(' ','NONE',#129,.NOT_KNOWN.);
#265=CARTESIAN_POINT('',(0.0,0.0,0.0));
#266=DIRECTION('',(0.0,0.0,1.0));
#267=DIRECTION('',(1.0,0.0,0.0));
#268= (NAMED_UNIT(#137)LENGTH_UNIT()SI_UNIT(.MILLI.,.METRE.));
#269=SURFACE_SIDE_STYLE('',(#417));
#270=DRAUGHTING_PRE_DEFINED_CURVE_FONT('continuous');
#271=COLOUR_RGB('',0.501960813999176,0.501960813999176,0.501960813999176);
#272=EDGE_LOOP('',(#418));
#273=EDGE_LOOP('',(#419));
#274=AXIS2_PLACEMENT_3D('',#420,#421,#422);
#275=SURFACE_SIDE_STYLE('',(#423));
#276=DRAUGHTING_PRE_DEFINED_CURVE_FONT('continuous');
#277=COLOUR_RGB('',0.501960813999176,0.501960813999176,0.501960813999176);
#278=EDGE_LOOP('',(#424));
#279=EDGE_LOOP('',(#425));
#280=AXIS2_PLACEMENT_3D('',#426,#427,#428);
#281=SURFACE_SIDE_STYLE('',(#429));
#282=DRAUGHTING_PRE_DEFINED_CURVE_FONT('continuous');
#283=COLOUR_RGB('',0.501960813999176,0.501960813999176,0.501960813999176);
#284=EDGE_LOOP('',(#430));
#285=EDGE_LOOP('',(#431));
#286=AXIS2_PLACEMENT_3D('',#432,#433,#434);
#287=SURFACE_SIDE_STYLE('',(#435));
#288=DRAUGHTING_PRE_DEFINED_CURVE_FONT('continuous');
#289=COLOUR_RGB('',0.501960813999176,0.501960813999176,0.501960813999176);
#290=EDGE_LOOP('',(#436));
#291=AXIS2_PLACEMENT_3D('',#437,#438,#439);
#292=SURFACE_SIDE_STYLE('',(#440));
#293=DRAUGHTING_PRE_DEFINED_CURVE_FONT('continuous');
#294=COLOUR_RGB('',0.501960813999176,0.501960813999176,0.501960813999176);
#295=EDGE_LOOP('',(#441));
#296=EDGE_LOOP('',(#442));
#297=AXIS2_PLACEMENT_3D('',#443,#444,#445);
#298=SURFACE_SIDE_STYLE('',(#446));
#299=DRAUGHTING_PRE_DEFINED_CURVE_FONT('continuous');
#300=COLOUR_RGB('',0.501960813999176,0.501960813999176,0.501960813999176);
#301=EDGE_LOOP('',(#447));
#302=EDGE_LOOP('',(#448));
#303=AXIS2_PLACEMENT_3D('',#449,#450,#451);
#304=DRAUGHTING_PRE_DEFINED_CURVE_FONT('continuous');
#305=COLOUR_RGB('',0.501960813999176,0.501960813999176,0.501960813999176);
#306=CARTESIAN_POINT('',(7.96785823695217E-016,45.6249999999999,-13.0124999999995));
#307=AXIS2_PLACEMENT_3D('',#452,#453,#454);
#308=DRAUGHTING_PRE_DEFINED_CURVE_FONT('continuous');
#309=COLOUR_RGB('',0.501960813999176,0.501960813999176,0.501960813999176);
#310=CARTESIAN_POINT('',(4.80821116265868E-016,48.75,-7.85240473580847));
#311=AXIS2_PLACEMENT_3D('',#455,#456,#457);
#312=DRAUGHTING_PRE_DEFINED_CURVE_FONT('continuous');
#313=COLOUR_RGB('',0.501960813999176,0.501960813999176,0.501960813999176);
#314=CARTESIAN_POINT('',(1.16953769318575E-015,43.0000001910174,-19.1000000000004));
#315=AXIS2_PLACEMENT_3D('',#458,#459,#460);
#316=SURFACE_SIDE_STYLE('',(#461));
#317=DRAUGHTING_PRE_DEFINED_CURVE_FONT('continuous');
#318=COLOUR_RGB('',0.501960813999176,0.501960813999176,0.501960813999176);
#319=EDGE_LOOP('',(#462));
#320=EDGE_LOOP('',(#463));
#321=AXIS2_PLACEMENT_3D('',#464,#465,#466);
#322=DRAUGHTING_PRE_DEFINED_CURVE_FONT('continuous');
#323=COLOUR_RGB('',0.501960813999176,0.501960813999176,0.501960813999176);
#324=CARTESIAN_POINT('',(7.96785823695291E-016,46.4375471694767,-13.0125000000007));
#325=AXIS2_PLACEMENT_3D('',#467,#468,#469);
#326=DRAUGHTING_PRE_DEFINED_CURVE_FONT('continuous');
#327=COLOUR_RGB('',0.501960813999176,0.501960813999176,0.501960813999176);
#328=CARTESIAN_POINT('',(9.18485099360511E-017,34.9250000000001,-1.5));
#329=AXIS2_PLACEMENT_3D('',#470,#471,#472);
#330=SURFACE_SIDE_STYLE('',(#473));
#331=DRAUGHTING_PRE_DEFINED_CURVE_FONT('continuous');
#332=COLOUR_RGB('',0.501960813999176,0.501960813999176,0.501960813999176);
#333=EDGE_LOOP('',(#474));
#334=EDGE_LOOP('',(#475));
#335=AXIS2_PLACEMENT_3D('',#476,#477,#478);
#336=DRAUGHTING_PRE_DEFINED_CURVE_FONT('continuous');
#337=COLOUR_RGB('',0.501960813999176,0.501960813999176,0.501960813999176);
#338=CARTESIAN_POINT('',(1.34711147906209E-014,37.9999998987931,-220.0));
#339=AXIS2_PLACEMENT_3D('',#479,#480,#481);
#340=DRAUGHTING_PRE_DEFINED_CURVE_FONT('continuous');
#341=COLOUR_RGB('',0.501960813999176,0.501960813999176,0.501960813999176);
#342=CARTESIAN_POINT('',(-6.23039059066216E-015,20.0865398924474,101.75));
#343=AXIS2_PLACEMENT_3D('',#482,#483,#484);
#344=SURFACE_SIDE_STYLE('',(#485));
#345=DRAUGHTING_PRE_DEFINED_CURVE_FONT('continuous');
#346=COLOUR_RGB('',0.501960813999176,0.501960813999176,0.501960813999176);
#347=SURFACE_SIDE_STYLE('',(#486));
#348=DRAUGHTING_PRE_DEFINED_CURVE_FONT('continuous');
#349=COLOUR_RGB('',0.501960813999176,0.501960813999176,0.501960813999176);
#350=EDGE_LOOP('',(#487));
#351=EDGE_LOOP('',(#488));
#352=AXIS2_PLACEMENT_3D('',#489,#490,#491);
#353=SURFACE_SIDE_STYLE('',(#492));
#354=DRAUGHTING_PRE_DEFINED_CURVE_FONT('continuous');
#355=COLOUR_RGB('',0.501960813999176,0.501960813999176,0.501960813999176);
#356=EDGE_LOOP('',(#493));
#357=EDGE_LOOP('',(#494));
#358=AXIS2_PLACEMENT_3D('',#495,#496,#497);
#359=DRAUGHTING_PRE_DEFINED_CURVE_FONT('continuous');
#360=COLOUR_RGB('',0.501960813999176,0.501960813999176,0.501960813999176);
#361=CARTESIAN_POINT('',(8.78536830787696E-016,48.7499999999998,-14.3475952641916));
#362=AXIS2_PLACEMENT_3D('',#498,#499,#500);
#363=SURFACE_SIDE_STYLE('',(#501));
#364=DRAUGHTING_PRE_DEFINED_CURVE_FONT('continuous');
#365=COLOUR_RGB('',0.501960813999176,0.501960813999176,0.501960813999176);
#366=EDGE_LOOP('',(#502));
#367=EDGE_LOOP('',(#503));
#368=AXIS2_PLACEMENT_3D('',#504,#505,#506);
#369=SURFACE_SIDE_STYLE('',(#507));
#370=DRAUGHTING_PRE_DEFINED_CURVE_FONT('continuous');
#371=COLOUR_RGB('',0.501960813999176,0.501960813999176,0.501960813999176);
#372=EDGE_LOOP('',(#508));
#373=EDGE_LOOP('',(#509));
#374=AXIS2_PLACEMENT_3D('',#510,#511,#512);
#375=DRAUGHTING_PRE_DEFINED_CURVE_FONT('continuous');
#376=COLOUR_RGB('',0.501960813999176,0.501960813999176,0.501960813999176);
#377=CARTESIAN_POINT('',(1.16953769318574E-015,48.7499999999999,-19.1000000000004));
#378=AXIS2_PLACEMENT_3D('',#513,#514,#515);
#379=DRAUGHTING_PRE_DEFINED_CURVE_FONT('continuous');
#380=COLOUR_RGB('',0.501960813999176,0.501960813999176,0.501960813999176);
#381=CARTESIAN_POINT('',(4.43210477302706E-029,34.9250000000001,-7.2657089489587E-013));
#382=AXIS2_PLACEMENT_3D('',#516,#517,#518);
#383=SURFACE_SIDE_STYLE('',(#519));
#384=DRAUGHTING_PRE_DEFINED_CURVE_FONT('continuous');
#385=COLOUR_RGB('',0.501960813999176,0.501960813999176,0.501960813999176);
#386=EDGE_LOOP('',(#520));
#387=EDGE_LOOP('',(#521));
#388=AXIS2_PLACEMENT_3D('',#522,#523,#524);
#389=DRAUGHTING_PRE_DEFINED_CURVE_FONT('continuous');
#390=COLOUR_RGB('',0.501960813999176,0.501960813999176,0.501960813999176);
#391=CARTESIAN_POINT('',(1.47569939297257E-015,38.0000001910176,-24.1000000000001));
#392=AXIS2_PLACEMENT_3D('',#525,#526,#527);
#393=SURFACE_SIDE_STYLE('',(#528));
#394=DRAUGHTING_PRE_DEFINED_CURVE_FONT('continuous');
#395=COLOUR_RGB('',0.501960813999176,0.501960813999176,0.501960813999176);
#396=EDGE_LOOP('',(#529));
#397=EDGE_LOOP('',(#530));
#398=AXIS2_PLACEMENT_3D('',#531,#532,#533);
#399=DRAUGHTING_PRE_DEFINED_CURVE_FONT('continuous');
#400=COLOUR_RGB('',0.501960813999176,0.501960813999176,0.501960813999176);
#401=CARTESIAN_POINT('',(5.62572123358287E-016,46.4375471694764,-9.18749999999954));
#402=AXIS2_PLACEMENT_3D('',#534,#535,#536);
#403=DRAUGHTING_PRE_DEFINED_CURVE_FONT('continuous');
#404=COLOUR_RGB('',0.501960813999176,0.501960813999176,0.501960813999176);
#405=CARTESIAN_POINT('',(5.6257212335836E-016,45.6249999999999,-9.18750000000073));
#406=AXIS2_PLACEMENT_3D('',#537,#538,#539);
#407=DRAUGHTING_PRE_DEFINED_CURVE_FONT('continuous');
#408=COLOUR_RGB('',0.501960813999176,0.501960813999176,0.501960813999176);
#409=CARTESIAN_POINT('',(9.18485099360509E-017,48.7499999999999,-1.49999999999999));
#410=AXIS2_PLACEMENT_3D('',#540,#541,#542);
#411=SURFACE_SIDE_STYLE('',(#543));
#412=DRAUGHTING_PRE_DEFINED_CURVE_FONT('continuous');
#413=COLOUR_RGB('',0.501960813999176,0.501960813999176,0.501960813999176);
#414=EDGE_LOOP('',(#544));
#415=AXIS2_PLACEMENT_3D('',#545,#546,#547);
#417=SURFACE_STYLE_FILL_AREA(#548);
#418=ORIENTED_EDGE('',*,*,#88,.F.);
#419=ORIENTED_EDGE('',*,*,#116,.T.);
#420=CARTESIAN_POINT('',(7.47340709179673E-015,1.49468141835934E-014,-122.05));
#421=DIRECTION('',(-6.12323399573677E-017,-1.22464679914735E-016,1.0));
#422=DIRECTION('',(-1.23259516440783E-032,1.0,1.22464679914735E-016));
#423=SURFACE_STYLE_FILL_AREA(#549);
#424=ORIENTED_EDGE('',*,*,#121,.F.);
#425=ORIENTED_EDGE('',*,*,#74,.T.);
#426=CARTESIAN_POINT('',(5.21696619812078E-016,1.04339323962416E-015,-8.51995236790401));
#427=DIRECTION('',(-6.12323399573677E-017,-1.22464679914735E-016,1.0));
#428=DIRECTION('',(-1.23259516440783E-032,1.0,1.22464679914735E-016));
#429=SURFACE_STYLE_FILL_AREA(#550);
#430=ORIENTED_EDGE('',*,*,#109,.T.);
#431=ORIENTED_EDGE('',*,*,#76,.F.);
#432=CARTESIAN_POINT('',(1.16953769318574E-015,45.8750000955086,-19.1000000000004));
#433=DIRECTION('',(6.12323399573677E-017,6.91896063905469E-015,-1.0));
#434=DIRECTION('',(-1.0,0.0,-6.12323399573677E-017));
#435=SURFACE_STYLE_FILL_AREA(#551);
#436=ORIENTED_EDGE('',*,*,#90,.F.);
#437=CARTESIAN_POINT('',(-6.23039059066216E-015,10.0432699462237,101.75));
#438=DIRECTION('',(7.49879891330927E-033,-1.22464679914735E-016,1.0));
#439=DIRECTION('',(1.0,6.12323399573677E-017,0.0));
#440=SURFACE_STYLE_FILL_AREA(#552);
#441=ORIENTED_EDGE('',*,*,#121,.T.);
#442=ORIENTED_EDGE('',*,*,#123,.F.);
#443=CARTESIAN_POINT('',(5.62572123358323E-016,46.0312735847381,-9.18750000000013));
#444=DIRECTION('',(6.12323399573677E-017,1.46703476714418E-012,-1.0));
#445=DIRECTION('',(-1.0,0.0,-6.12323399573677E-017));
#446=SURFACE_STYLE_FILL_AREA(#553);
#447=ORIENTED_EDGE('',*,*,#72,.F.);
#448=ORIENTED_EDGE('',*,*,#123,.T.);
#449=CARTESIAN_POINT('',(6.79678973526789E-016,1.35935794705358E-015,-11.1000000000001));
#450=DIRECTION('',(-6.12323399573676E-017,-1.22464679914735E-016,1.0));
#451=DIRECTION('',(-1.23259516440783E-032,1.0,1.22464679914735E-016));
#452=CARTESIAN_POINT('',(7.96785823695218E-016,1.59357164739044E-015,-13.0124999999995));
#453=DIRECTION('',(6.12323399573676E-017,1.22464679914735E-016,-1.0));
#454=DIRECTION('',(-1.23259516440783E-032,1.0,1.22464679914735E-016));
#455=CARTESIAN_POINT('',(4.80821116265868E-016,9.61642232531737E-016,-7.85240473580848));
#456=DIRECTION('',(6.12323399573677E-017,1.22464679914735E-016,-1.0));
#457=DIRECTION('',(-1.23259516440783E-032,1.0,1.22464679914735E-016));
#458=CARTESIAN_POINT('',(1.16953769318575E-015,2.33907538637149E-015,-19.1000000000004));
#459=DIRECTION('',(6.12323399573677E-017,1.22464679914735E-016,-1.0));
#460=DIRECTION('',(-1.23259516440783E-032,1.0,1.22464679914735E-016));
#461=SURFACE_STYLE_FILL_AREA(#554);
#462=ORIENTED_EDGE('',*,*,#101,.F.);
#463=ORIENTED_EDGE('',*,*,#81,.T.);
#464=CARTESIAN_POINT('',(8.37661327241494E-016,1.67532265448299E-015,-13.6800476320961));
#465=DIRECTION('',(6.12323399573676E-017,1.22464679914735E-016,-1.0));
#466=DIRECTION('',(-1.23259516440783E-032,1.0,1.22464679914735E-016));
#467=CARTESIAN_POINT('',(7.96785823695291E-016,1.59357164739058E-015,-13.0125000000007));
#468=DIRECTION('',(6.12323399573676E-017,1.22464679914735E-016,-1.0));
#469=DIRECTION('',(-1.23259516440783E-032,1.0,1.22464679914735E-016));
#470=CARTESIAN_POINT('',(9.18485099360515E-017,1.83697019872103E-016,-1.5));
#471=DIRECTION('',(6.12323399573677E-017,1.22464679914735E-016,-1.0));
#472=DIRECTION('',(-1.23259516440783E-032,1.0,1.22464679914735E-016));
#473=SURFACE_STYLE_FILL_AREA(#555);
#474=ORIENTED_EDGE('',*,*,#81,.F.);
#475=ORIENTED_EDGE('',*,*,#72,.T.);
#476=CARTESIAN_POINT('',(7.96785823695254E-016,46.0312735847383,-13.0125000000001));
#477=DIRECTION('',(-9.03504283764464E-029,1.47553447147948E-012,1.0));
#478=DIRECTION('',(1.0,6.12323399573677E-017,0.0));
#479=CARTESIAN_POINT('',(1.34711147906209E-014,2.69422295812418E-014,-220.0));
#480=DIRECTION('',(6.12323399573677E-017,1.22464679914735E-016,-1.0));
#481=DIRECTION('',(-1.23259516440783E-032,1.0,1.22464679914735E-016));
#482=CARTESIAN_POINT('',(-6.23039059066216E-015,-1.24607811813243E-014,101.75));
#483=DIRECTION('',(6.12323399573677E-017,1.22464679914735E-016,-1.0));
#484=DIRECTION('',(-1.23259516440783E-032,1.0,1.22464679914735E-016));
#485=SURFACE_STYLE_FILL_AREA(#556);
#486=SURFACE_STYLE_FILL_AREA(#557);
#487=ORIENTED_EDGE('',*,*,#116,.F.);
#488=ORIENTED_EDGE('',*,*,#76,.T.);
#489=CARTESIAN_POINT('',(1.32261854307916E-015,2.64523708615831E-015,-21.6000000000003));
#490=DIRECTION('',(-6.12323399573677E-017,-1.22464679914735E-016,1.0));
#491=DIRECTION('',(-1.23259516440783E-032,1.0,1.22464679914735E-016));
#492=SURFACE_STYLE_FILL_AREA(#558);
#493=ORIENTED_EDGE('',*,*,#109,.F.);
#494=ORIENTED_EDGE('',*,*,#101,.T.);
#495=CARTESIAN_POINT('',(1.02403726198672E-015,2.04807452397344E-015,-16.723797632096));
#496=DIRECTION('',(-6.12323399573677E-017,-1.22464679914735E-016,1.0));
#497=DIRECTION('',(-1.23259516440783E-032,1.0,1.22464679914735E-016));
#498=CARTESIAN_POINT('',(8.78536830787696E-016,1.75707366157539E-015,-14.3475952641916));
#499=DIRECTION('',(6.12323399573677E-017,1.22464679914735E-016,-1.0));
#500=DIRECTION('',(-1.23259516440783E-032,1.0,1.22464679914735E-016));
#501=SURFACE_STYLE_FILL_AREA(#559);
#502=ORIENTED_EDGE('',*,*,#74,.F.);
#503=ORIENTED_EDGE('',*,*,#125,.T.);
#504=CARTESIAN_POINT('',(2.8633481310096E-016,5.7266962620192E-016,-4.67620236790424));
#505=DIRECTION('',(-6.12323399573677E-017,-1.22464679914735E-016,1.0));
#506=DIRECTION('',(-1.23259516440783E-032,1.0,1.22464679914735E-016));
#507=SURFACE_STYLE_FILL_AREA(#560);
#508=ORIENTED_EDGE('',*,*,#125,.F.);
#509=ORIENTED_EDGE('',*,*,#83,.T.);
#510=CARTESIAN_POINT('',(9.1848509936051E-017,41.8375,-1.49999999999999));
#511=DIRECTION('',(7.49879891330927E-033,-1.22464679914735E-016,1.0));
#512=DIRECTION('',(1.0,6.12323399573677E-017,0.0));
#513=CARTESIAN_POINT('',(1.16953769318574E-015,2.33907538637149E-015,-19.1000000000004));
#514=DIRECTION('',(6.12323399573677E-017,1.22464679914735E-016,-1.0));
#515=DIRECTION('',(-1.23259516440783E-032,1.0,1.22464679914735E-016));
#516=CARTESIAN_POINT('',(4.52485221243125E-029,9.04970442486251E-029,-7.38964445190504E-013));
#517=DIRECTION('',(6.12323399573677E-017,1.22464679914735E-016,-1.0));
#518=DIRECTION('',(-1.23259516440783E-032,1.0,1.22464679914735E-016));
#519=SURFACE_STYLE_FILL_AREA(#561);
#520=ORIENTED_EDGE('',*,*,#83,.F.);
#521=ORIENTED_EDGE('',*,*,#111,.T.);
#522=CARTESIAN_POINT('',(4.59242549680484E-017,9.18485099360967E-017,-0.750000000000369));
#523=DIRECTION('',(-6.12323399573677E-017,-1.22464679914735E-016,1.0));
#524=DIRECTION('',(-1.23259516440783E-032,1.0,1.22464679914735E-016));
#525=CARTESIAN_POINT('',(1.47569939297257E-015,2.95139878594513E-015,-24.1000000000001));
#526=DIRECTION('',(6.12323399573677E-017,1.22464679914735E-016,-1.0));
#527=DIRECTION('',(-1.23259516440783E-032,1.0,1.22464679914735E-016));
#528=SURFACE_STYLE_FILL_AREA(#562);
#529=ORIENTED_EDGE('',*,*,#111,.F.);
#530=ORIENTED_EDGE('',*,*,#90,.T.);
#531=CARTESIAN_POINT('',(-3.11519529533106E-015,-6.23039059066212E-015,50.8749999999997));
#532=DIRECTION('',(6.12323399573677E-017,1.22464679914735E-016,-1.0));
#533=DIRECTION('',(-1.23259516440783E-032,1.0,1.22464679914735E-016));
#534=CARTESIAN_POINT('',(5.62572123358288E-016,1.12514424671657E-015,-9.18749999999955));
#535=DIRECTION('',(6.12323399573677E-017,1.22464679914735E-016,-1.0));
#536=DIRECTION('',(-1.23259516440783E-032,1.0,1.22464679914735E-016));
#537=CARTESIAN_POINT('',(5.62572123358361E-016,1.12514424671672E-015,-9.18750000000074));
#538=DIRECTION('',(6.12323399573676E-017,1.22464679914735E-016,-1.0));
#539=DIRECTION('',(-1.23259516440783E-032,1.0,1.22464679914735E-016));
#540=CARTESIAN_POINT('',(9.18485099360515E-017,1.83697019872103E-016,-1.5));
#541=DIRECTION('',(6.12323399573677E-017,1.22464679914735E-016,-1.0));
#542=DIRECTION('',(-1.23259516440783E-032,1.0,1.22464679914735E-016));
#543=SURFACE_STYLE_FILL_AREA(#563);
#544=ORIENTED_EDGE('',*,*,#88,.T.);
#545=CARTESIAN_POINT('',(1.34711147906209E-014,18.9999999493966,-220.0));
#546=DIRECTION('',(6.12323399573677E-017,1.20895002614308E-014,-1.0));
#547=DIRECTION('',(-1.0,0.0,-6.12323399573677E-017));
#548=FILL_AREA_STYLE('',(#564));
#549=FILL_AREA_STYLE('',(#565));
#550=FILL_AREA_STYLE('',(#566));
#551=FILL_AREA_STYLE('',(#567));
#552=FILL_AREA_STYLE('',(#568));
#553=FILL_AREA_STYLE('',(#569));
#554=FILL_AREA_STYLE('',(#570));
#555=FILL_AREA_STYLE('',(#571));
#556=FILL_AREA_STYLE('',(#572));
#557=FILL_AREA_STYLE('',(#573));
#558=FILL_AREA_STYLE('',(#574));
#559=FILL_AREA_STYLE('',(#575));
#560=FILL_AREA_STYLE('',(#576));
#561=FILL_AREA_STYLE('',(#577));
#562=FILL_AREA_STYLE('',(#578));
#563=FILL_AREA_STYLE('',(#579));
#564=FILL_AREA_STYLE_COLOUR('',#580);
#565=FILL_AREA_STYLE_COLOUR('',#581);
#566=FILL_AREA_STYLE_COLOUR('',#582);
#567=FILL_AREA_STYLE_COLOUR('',#583);
#568=FILL_AREA_STYLE_COLOUR('',#584);
#569=FILL_AREA_STYLE_COLOUR('',#585);
#570=FILL_AREA_STYLE_COLOUR('',#586);
#571=FILL_AREA_STYLE_COLOUR('',#587);
#572=FILL_AREA_STYLE_COLOUR('',#588);
#573=FILL_AREA_STYLE_COLOUR('',#589);
#574=FILL_AREA_STYLE_COLOUR('',#590);
#575=FILL_AREA_STYLE_COLOUR('',#591);
#576=FILL_AREA_STYLE_COLOUR('',#592);
#577=FILL_AREA_STYLE_COLOUR('',#593);
#578=FILL_AREA_STYLE_COLOUR('',#594);
#579=FILL_AREA_STYLE_COLOUR('',#595);
#580=COLOUR_RGB('',0.501960813999176,0.501960813999176,0.501960813999176);
#581=COLOUR_RGB('',0.501960813999176,0.501960813999176,0.501960813999176);
#582=COLOUR_RGB('',0.501960813999176,0.501960813999176,0.501960813999176);
#583=COLOUR_RGB('',0.501960813999176,0.501960813999176,0.501960813999176);
#584=COLOUR_RGB('',0.501960813999176,0.501960813999176,0.501960813999176);
#585=COLOUR_RGB('',0.501960813999176,0.501960813999176,0.501960813999176);
#586=COLOUR_RGB('',0.501960813999176,0.501960813999176,0.501960813999176);
#587=COLOUR_RGB('',0.501960813999176,0.501960813999176,0.501960813999176);
#588=COLOUR_RGB('',0.501960813999176,0.501960813999176,0.501960813999176);
#589=COLOUR_RGB('',0.501960813999176,0.501960813999176,0.501960813999176);
#590=COLOUR_RGB('',0.501960813999176,0.501960813999176,0.501960813999176);
#591=COLOUR_RGB('',0.501960813999176,0.501960813999176,0.501960813999176);
#592=COLOUR_RGB('',0.501960813999176,0.501960813999176,0.501960813999176);
#593=COLOUR_RGB('',0.501960813999176,0.501960813999176,0.501960813999176);
#594=COLOUR_RGB('',0.501960813999176,0.501960813999176,0.501960813999176);
#595=COLOUR_RGB('',0.501960813999176,0.501960813999176,0.501960813999176);
ENDSEC;
END-ISO-10303-21;
