ISO-10303-21;
HEADER;
FILE_DESCRIPTION((''),'1');
FILE_NAME('T:/02_3D_Field-HP\X2\FF71FF6FFF8CFF9F5916\X0\/02_Step_Field-HP\X2\FF71FF6FFF8CFF9F5916\X0\/15_\X2\FF7DFF8FFF70FF84FF80FF9EFF9DFF8AFF9FFF70\X0\FMH/BDV50-SDF57-76-170.stp','2022-10-12T05:44:03',(''),(''),'Spatial Interop R21 SP3','Kubotek KeyCreator 2011 V10.0.2 (22737)',' ');
FILE_SCHEMA(('automotive_design'));
ENDSEC;
DATA;
#1=MECHANICAL_DESIGN_GEOMETRIC_PRESENTATION_REPRESENTATION(' ',(#10,#11,#12,#13,#14,#15,#16,#17,#18,#19,#20,#21,#22,#23,#24,#25,#26,#27,#28,#29,#30,#31,#32,#33,#34,#35,#36,#37,#38,#39),#6);
#2=PRODUCT_DEFINITION_CONTEXT('',#40,'design');
#3=APPLICATION_PROTOCOL_DEFINITION('INTERNATIONAL STANDARD','automotive_design',1994,#40);
#4=PRODUCT_CATEGORY_RELATIONSHIP('NONE','NONE',#41,#42);
#5=SHAPE_DEFINITION_REPRESENTATION(#43,#44);
#6= (GEOMETRIC_REPRESENTATION_CONTEXT(3)GLOBAL_UNCERTAINTY_ASSIGNED_CONTEXT((#47))GLOBAL_UNIT_ASSIGNED_CONTEXT((#49,#50,#51))REPRESENTATION_CONTEXT('NONE','WORKSPACE'));
#10=STYLED_ITEM('',(#53,#54),#55);
#11=STYLED_ITEM('',(#56,#57),#58);
#12=STYLED_ITEM('',(#59),#60);
#13=STYLED_ITEM('',(#61),#62);
#14=STYLED_ITEM('',(#63,#64),#65);
#15=STYLED_ITEM('',(#66,#67),#68);
#16=STYLED_ITEM('',(#69,#70),#71);
#17=STYLED_ITEM('',(#72,#73),#74);
#18=STYLED_ITEM('',(#75,#76),#77);
#19=STYLED_ITEM('',(#78),#79);
#20=STYLED_ITEM('',(#80),#81);
#21=STYLED_ITEM('',(#82),#83);
#22=STYLED_ITEM('',(#84),#85);
#23=STYLED_ITEM('',(#86),#87);
#24=STYLED_ITEM('',(#88,#89),#90);
#25=STYLED_ITEM('',(#91,#92),#93);
#26=STYLED_ITEM('',(#94),#95);
#27=STYLED_ITEM('',(#96),#97);
#28=STYLED_ITEM('',(#98),#99);
#29=STYLED_ITEM('',(#100),#101);
#30=STYLED_ITEM('',(#102,#103),#104);
#31=STYLED_ITEM('',(#105,#106),#107);
#32=STYLED_ITEM('',(#108),#109);
#33=STYLED_ITEM('',(#110,#111),#112);
#34=STYLED_ITEM('',(#113,#114),#115);
#35=STYLED_ITEM('',(#116,#117),#118);
#36=STYLED_ITEM('',(#119),#120);
#37=STYLED_ITEM('',(#121,#122),#123);
#38=STYLED_ITEM('',(#124),#125);
#39=STYLED_ITEM('',(#126,#127),#128);
#40=APPLICATION_CONTEXT(' ');
#41=PRODUCT_CATEGORY('part','NONE');
#42=PRODUCT_RELATED_PRODUCT_CATEGORY('detail',' ',(#129));
#43=PRODUCT_DEFINITION_SHAPE('NONE','NONE',#130);
#44=ADVANCED_BREP_SHAPE_REPRESENTATION('240[2]',(#107,#131),#6);
#47=UNCERTAINTY_MEASURE_WITH_UNIT(LENGTH_MEASURE(1.0E-006),#49,'','');
#49= (CONVERSION_BASED_UNIT('MILLIMETRE',#134)LENGTH_UNIT()NAMED_UNIT(#137));
#50= (NAMED_UNIT(#139)PLANE_ANGLE_UNIT()SI_UNIT($,.RADIAN.));
#51= (NAMED_UNIT(#139)SOLID_ANGLE_UNIT()SI_UNIT($,.STERADIAN.));
#53=PRESENTATION_STYLE_ASSIGNMENT((#145));
#54=PRESENTATION_STYLE_ASSIGNMENT((#146));
#55=ADVANCED_FACE('240[2]',(#147,#148),#149,.T.);
#56=PRESENTATION_STYLE_ASSIGNMENT((#150));
#57=PRESENTATION_STYLE_ASSIGNMENT((#151));
#58=ADVANCED_FACE('240[2]',(#152),#153,.T.);
#59=PRESENTATION_STYLE_ASSIGNMENT((#154));
#60=EDGE_CURVE('240[2]',#155,#155,#156,.T.);
#61=PRESENTATION_STYLE_ASSIGNMENT((#157));
#62=EDGE_CURVE('240[2]',#158,#158,#159,.T.);
#63=PRESENTATION_STYLE_ASSIGNMENT((#160));
#64=PRESENTATION_STYLE_ASSIGNMENT((#161));
#65=ADVANCED_FACE('240[2]',(#162,#163),#164,.T.);
#66=PRESENTATION_STYLE_ASSIGNMENT((#165));
#67=PRESENTATION_STYLE_ASSIGNMENT((#166));
#68=ADVANCED_FACE('240[2]',(#167,#168),#169,.T.);
#69=PRESENTATION_STYLE_ASSIGNMENT((#170));
#70=PRESENTATION_STYLE_ASSIGNMENT((#171));
#71=ADVANCED_FACE('240[2]',(#172,#173),#174,.T.);
#72=PRESENTATION_STYLE_ASSIGNMENT((#175));
#73=PRESENTATION_STYLE_ASSIGNMENT((#176));
#74=ADVANCED_FACE('240[2]',(#177,#178),#179,.T.);
#75=PRESENTATION_STYLE_ASSIGNMENT((#180));
#76=PRESENTATION_STYLE_ASSIGNMENT((#181));
#77=ADVANCED_FACE('240[2]',(#182,#183),#184,.T.);
#78=PRESENTATION_STYLE_ASSIGNMENT((#185));
#79=EDGE_CURVE('240[2]',#186,#186,#187,.T.);
#80=PRESENTATION_STYLE_ASSIGNMENT((#188));
#81=EDGE_CURVE('240[2]',#189,#189,#190,.T.);
#82=PRESENTATION_STYLE_ASSIGNMENT((#191));
#83=EDGE_CURVE('240[2]',#192,#192,#193,.T.);
#84=PRESENTATION_STYLE_ASSIGNMENT((#194));
#85=EDGE_CURVE('240[2]',#195,#195,#196,.T.);
#86=PRESENTATION_STYLE_ASSIGNMENT((#197));
#87=EDGE_CURVE('240[2]',#198,#198,#199,.T.);
#88=PRESENTATION_STYLE_ASSIGNMENT((#200));
#89=PRESENTATION_STYLE_ASSIGNMENT((#201));
#90=ADVANCED_FACE('240[2]',(#202),#203,.T.);
#91=PRESENTATION_STYLE_ASSIGNMENT((#204));
#92=PRESENTATION_STYLE_ASSIGNMENT((#205));
#93=ADVANCED_FACE('240[2]',(#206,#207),#208,.T.);
#94=PRESENTATION_STYLE_ASSIGNMENT((#209));
#95=EDGE_CURVE('240[2]',#210,#210,#211,.T.);
#96=PRESENTATION_STYLE_ASSIGNMENT((#212));
#97=EDGE_CURVE('240[2]',#213,#213,#214,.T.);
#98=PRESENTATION_STYLE_ASSIGNMENT((#215));
#99=EDGE_CURVE('240[2]',#216,#216,#217,.T.);
#100=PRESENTATION_STYLE_ASSIGNMENT((#218));
#101=EDGE_CURVE('240[2]',#219,#219,#220,.T.);
#102=PRESENTATION_STYLE_ASSIGNMENT((#221));
#103=PRESENTATION_STYLE_ASSIGNMENT((#222));
#104=ADVANCED_FACE('240[2]',(#223,#224),#225,.T.);
#105=PRESENTATION_STYLE_ASSIGNMENT((#226));
#106=PRESENTATION_STYLE_ASSIGNMENT((#227));
#107=MANIFOLD_SOLID_BREP('240[2]',#228);
#108=PRESENTATION_STYLE_ASSIGNMENT((#229));
#109=EDGE_CURVE('240[2]',#230,#230,#231,.T.);
#110=PRESENTATION_STYLE_ASSIGNMENT((#232));
#111=PRESENTATION_STYLE_ASSIGNMENT((#233));
#112=ADVANCED_FACE('240[2]',(#234,#235),#236,.T.);
#113=PRESENTATION_STYLE_ASSIGNMENT((#237));
#114=PRESENTATION_STYLE_ASSIGNMENT((#238));
#115=ADVANCED_FACE('240[2]',(#239,#240),#241,.T.);
#116=PRESENTATION_STYLE_ASSIGNMENT((#242));
#117=PRESENTATION_STYLE_ASSIGNMENT((#243));
#118=ADVANCED_FACE('240[2]',(#244,#245),#246,.T.);
#119=PRESENTATION_STYLE_ASSIGNMENT((#247));
#120=EDGE_CURVE('240[2]',#248,#248,#249,.T.);
#121=PRESENTATION_STYLE_ASSIGNMENT((#250));
#122=PRESENTATION_STYLE_ASSIGNMENT((#251));
#123=ADVANCED_FACE('240[2]',(#252,#253),#254,.T.);
#124=PRESENTATION_STYLE_ASSIGNMENT((#255));
#125=EDGE_CURVE('240[2]',#256,#256,#257,.T.);
#126=PRESENTATION_STYLE_ASSIGNMENT((#258));
#127=PRESENTATION_STYLE_ASSIGNMENT((#259));
#128=ADVANCED_FACE('240[2]',(#260,#261),#262,.T.);
#129=PRODUCT('240[2]','240[2]','PART-240[2]-DESC',(#263));
#130=PRODUCT_DEFINITION('NONE','NONE',#264,#2);
#131=AXIS2_PLACEMENT_3D('',#265,#266,#267);
#134=LENGTH_MEASURE_WITH_UNIT(LENGTH_MEASURE(1.0),#268);
#137=DIMENSIONAL_EXPONENTS(1.0,0.0,0.0,0.0,0.0,0.0,0.0);
#139=DIMENSIONAL_EXPONENTS(0.0,0.0,0.0,0.0,0.0,0.0,0.0);
#145=SURFACE_STYLE_USAGE(.BOTH.,#269);
#146=CURVE_STYLE('',#270,POSITIVE_LENGTH_MEASURE(1000.0),#271);
#147=FACE_BOUND('',#272,.T.);
#148=FACE_BOUND('',#273,.T.);
#149=CONICAL_SURFACE('',#274,40.5000001910176,0.785398163397473);
#150=SURFACE_STYLE_USAGE(.BOTH.,#275);
#151=CURVE_STYLE('',#276,POSITIVE_LENGTH_MEASURE(1000.0),#277);
#152=FACE_OUTER_BOUND('',#278,.T.);
#153=PLANE('',#279);
#154=CURVE_STYLE('',#280,POSITIVE_LENGTH_MEASURE(1000.0),#281);
#155=VERTEX_POINT('',#282);
#156=CIRCLE('',#283,43.0000001910176);
#157=CURVE_STYLE('',#284,POSITIVE_LENGTH_MEASURE(1000.0),#285);
#158=VERTEX_POINT('',#286);
#159=CIRCLE('',#287,45.6249999999999);
#160=SURFACE_STYLE_USAGE(.BOTH.,#288);
#161=CURVE_STYLE('',#289,POSITIVE_LENGTH_MEASURE(1000.0),#290);
#162=FACE_OUTER_BOUND('',#291,.T.);
#163=FACE_BOUND('',#292,.T.);
#164=PLANE('',#293);
#165=SURFACE_STYLE_USAGE(.BOTH.,#294);
#166=CURVE_STYLE('',#295,POSITIVE_LENGTH_MEASURE(1000.0),#296);
#167=FACE_BOUND('',#297,.T.);
#168=FACE_BOUND('',#298,.T.);
#169=CYLINDRICAL_SURFACE('',#299,34.9250000000001);
#170=SURFACE_STYLE_USAGE(.BOTH.,#300);
#171=CURVE_STYLE('',#301,POSITIVE_LENGTH_MEASURE(1000.0),#302);
#172=FACE_BOUND('',#303,.T.);
#173=FACE_BOUND('',#304,.T.);
#174=CYLINDRICAL_SURFACE('',#305,38.0000000448798);
#175=SURFACE_STYLE_USAGE(.BOTH.,#306);
#176=CURVE_STYLE('',#307,POSITIVE_LENGTH_MEASURE(1000.0),#308);
#177=FACE_BOUND('',#309,.T.);
#178=FACE_BOUND('',#310,.T.);
#179=CYLINDRICAL_SURFACE('',#311,45.6249999999999);
#180=SURFACE_STYLE_USAGE(.BOTH.,#312);
#181=CURVE_STYLE('',#313,POSITIVE_LENGTH_MEASURE(1000.0),#314);
#182=FACE_BOUND('',#315,.T.);
#183=FACE_BOUND('',#316,.T.);
#184=CONICAL_SURFACE('',#317,47.5937735847382,1.04719755119662);
#185=CURVE_STYLE('',#318,POSITIVE_LENGTH_MEASURE(1000.0),#319);
#186=VERTEX_POINT('',#320);
#187=CIRCLE('',#321,48.7499999999999);
#188=CURVE_STYLE('',#322,POSITIVE_LENGTH_MEASURE(1000.0),#323);
#189=VERTEX_POINT('',#324);
#190=CIRCLE('',#325,48.7499999999999);
#191=CURVE_STYLE('',#326,POSITIVE_LENGTH_MEASURE(1000.0),#327);
#192=VERTEX_POINT('',#328);
#193=CIRCLE('',#329,20.0865398924474);
#194=CURVE_STYLE('',#330,POSITIVE_LENGTH_MEASURE(1000.0),#331);
#195=VERTEX_POINT('',#332);
#196=CIRCLE('',#333,37.999999898742);
#197=CURVE_STYLE('',#334,POSITIVE_LENGTH_MEASURE(1000.0),#335);
#198=VERTEX_POINT('',#336);
#199=CIRCLE('',#337,48.75);
#200=SURFACE_STYLE_USAGE(.BOTH.,#338);
#201=CURVE_STYLE('',#339,POSITIVE_LENGTH_MEASURE(1000.0),#340);
#202=FACE_OUTER_BOUND('',#341,.T.);
#203=PLANE('',#342);
#204=SURFACE_STYLE_USAGE(.BOTH.,#343);
#205=CURVE_STYLE('',#344,POSITIVE_LENGTH_MEASURE(1000.0),#345);
#206=FACE_BOUND('',#346,.T.);
#207=FACE_BOUND('',#347,.T.);
#208=CONICAL_SURFACE('',#348,27.5057699462237,0.144811713367222);
#209=CURVE_STYLE('',#349,POSITIVE_LENGTH_MEASURE(1000.0),#350);
#210=VERTEX_POINT('',#351);
#211=CIRCLE('',#352,34.9250000000001);
#212=CURVE_STYLE('',#353,POSITIVE_LENGTH_MEASURE(1000.0),#354);
#213=VERTEX_POINT('',#355);
#214=CIRCLE('',#356,38.0000001910176);
#215=CURVE_STYLE('',#357,POSITIVE_LENGTH_MEASURE(1000.0),#358);
#216=VERTEX_POINT('',#359);
#217=CIRCLE('',#360,45.6249999999999);
#218=CURVE_STYLE('',#361,POSITIVE_LENGTH_MEASURE(1000.0),#362);
#219=VERTEX_POINT('',#363);
#220=CIRCLE('',#364,46.4375471694767);
#221=SURFACE_STYLE_USAGE(.BOTH.,#365);
#222=CURVE_STYLE('',#366,POSITIVE_LENGTH_MEASURE(1000.0),#367);
#223=FACE_OUTER_BOUND('',#368,.T.);
#224=FACE_BOUND('',#369,.T.);
#225=PLANE('',#370);
#226=SURFACE_STYLE_USAGE(.BOTH.,#371);
#227=CURVE_STYLE('',#372,POSITIVE_LENGTH_MEASURE(1000.0),#373);
#228=CLOSED_SHELL('',(#90,#93,#68,#112,#118,#77,#104,#74,#128,#123,#115,#65,#55,#71,#58));
#229=CURVE_STYLE('',#374,POSITIVE_LENGTH_MEASURE(1000.0),#375);
#230=VERTEX_POINT('',#376);
#231=CIRCLE('',#377,48.7499999999998);
#232=SURFACE_STYLE_USAGE(.BOTH.,#378);
#233=CURVE_STYLE('',#379,POSITIVE_LENGTH_MEASURE(1000.0),#380);
#234=FACE_OUTER_BOUND('',#381,.T.);
#235=FACE_BOUND('',#382,.T.);
#236=PLANE('',#383);
#237=SURFACE_STYLE_USAGE(.BOTH.,#384);
#238=CURVE_STYLE('',#385,POSITIVE_LENGTH_MEASURE(1000.0),#386);
#239=FACE_BOUND('',#387,.T.);
#240=FACE_BOUND('',#388,.T.);
#241=CYLINDRICAL_SURFACE('',#389,48.7499999999998);
#242=SURFACE_STYLE_USAGE(.BOTH.,#390);
#243=CURVE_STYLE('',#391,POSITIVE_LENGTH_MEASURE(1000.0),#392);
#244=FACE_BOUND('',#393,.T.);
#245=FACE_BOUND('',#394,.T.);
#246=CYLINDRICAL_SURFACE('',#395,48.7499999999999);
#247=CURVE_STYLE('',#396,POSITIVE_LENGTH_MEASURE(1000.0),#397);
#248=VERTEX_POINT('',#398);
#249=CIRCLE('',#399,34.9250000000001);
#250=SURFACE_STYLE_USAGE(.BOTH.,#400);
#251=CURVE_STYLE('',#401,POSITIVE_LENGTH_MEASURE(1000.0),#402);
#252=FACE_BOUND('',#403,.T.);
#253=FACE_BOUND('',#404,.T.);
#254=CONICAL_SURFACE('',#405,47.5937735847382,1.04719755119659);
#255=CURVE_STYLE('',#406,POSITIVE_LENGTH_MEASURE(1000.0),#407);
#256=VERTEX_POINT('',#408);
#257=CIRCLE('',#409,46.4375471694764);
#258=SURFACE_STYLE_USAGE(.BOTH.,#410);
#259=CURVE_STYLE('',#411,POSITIVE_LENGTH_MEASURE(1000.0),#412);
#260=FACE_OUTER_BOUND('',#413,.T.);
#261=FACE_BOUND('',#414,.T.);
#262=PLANE('',#415);
#263=PRODUCT_CONTEXT('',#40,'mechanical');
#264=PRODUCT_DEFINITION_FORMATION_WITH_SPECIFIED_SOURCE(' ','NONE',#129,.NOT_KNOWN.);
#265=CARTESIAN_POINT('',(0.0,0.0,0.0));
#266=DIRECTION('',(0.0,0.0,1.0));
#267=DIRECTION('',(1.0,0.0,0.0));
#268= (NAMED_UNIT(#137)LENGTH_UNIT()SI_UNIT(.MILLI.,.METRE.));
#269=SURFACE_SIDE_STYLE('',(#417));
#270=DRAUGHTING_PRE_DEFINED_CURVE_FONT('continuous');
#271=COLOUR_RGB('',0.501960813999176,0.501960813999176,0.501960813999176);
#272=EDGE_LOOP('',(#418));
#273=EDGE_LOOP('',(#419));
#274=AXIS2_PLACEMENT_3D('',#420,#421,#422);
#275=SURFACE_SIDE_STYLE('',(#423));
#276=DRAUGHTING_PRE_DEFINED_CURVE_FONT('continuous');
#277=COLOUR_RGB('',0.501960813999176,0.501960813999176,0.501960813999176);
#278=EDGE_LOOP('',(#424));
#279=AXIS2_PLACEMENT_3D('',#425,#426,#427);
#280=DRAUGHTING_PRE_DEFINED_CURVE_FONT('continuous');
#281=COLOUR_RGB('',0.501960813999176,0.501960813999176,0.501960813999176);
#282=CARTESIAN_POINT('',(1.16953769318575E-015,43.0000001910176,-19.1000000000004));
#283=AXIS2_PLACEMENT_3D('',#428,#429,#430);
#284=DRAUGHTING_PRE_DEFINED_CURVE_FONT('continuous');
#285=COLOUR_RGB('',0.501960813999176,0.501960813999176,0.501960813999176);
#286=CARTESIAN_POINT('',(7.96785823695217E-016,45.6249999999999,-13.0124999999995));
#287=AXIS2_PLACEMENT_3D('',#431,#432,#433);
#288=SURFACE_SIDE_STYLE('',(#434));
#289=DRAUGHTING_PRE_DEFINED_CURVE_FONT('continuous');
#290=COLOUR_RGB('',0.501960813999176,0.501960813999176,0.501960813999176);
#291=EDGE_LOOP('',(#435));
#292=EDGE_LOOP('',(#436));
#293=AXIS2_PLACEMENT_3D('',#437,#438,#439);
#294=SURFACE_SIDE_STYLE('',(#440));
#295=DRAUGHTING_PRE_DEFINED_CURVE_FONT('continuous');
#296=COLOUR_RGB('',0.501960813999176,0.501960813999176,0.501960813999176);
#297=EDGE_LOOP('',(#441));
#298=EDGE_LOOP('',(#442));
#299=AXIS2_PLACEMENT_3D('',#443,#444,#445);
#300=SURFACE_SIDE_STYLE('',(#446));
#301=DRAUGHTING_PRE_DEFINED_CURVE_FONT('continuous');
#302=COLOUR_RGB('',0.501960813999176,0.501960813999176,0.501960813999176);
#303=EDGE_LOOP('',(#447));
#304=EDGE_LOOP('',(#448));
#305=AXIS2_PLACEMENT_3D('',#449,#450,#451);
#306=SURFACE_SIDE_STYLE('',(#452));
#307=DRAUGHTING_PRE_DEFINED_CURVE_FONT('continuous');
#308=COLOUR_RGB('',0.501960813999176,0.501960813999176,0.501960813999176);
#309=EDGE_LOOP('',(#453));
#310=EDGE_LOOP('',(#454));
#311=AXIS2_PLACEMENT_3D('',#455,#456,#457);
#312=SURFACE_SIDE_STYLE('',(#458));
#313=DRAUGHTING_PRE_DEFINED_CURVE_FONT('continuous');
#314=COLOUR_RGB('',0.501960813999176,0.501960813999176,0.501960813999176);
#315=EDGE_LOOP('',(#459));
#316=EDGE_LOOP('',(#460));
#317=AXIS2_PLACEMENT_3D('',#461,#462,#463);
#318=DRAUGHTING_PRE_DEFINED_CURVE_FONT('continuous');
#319=COLOUR_RGB('',0.501960813999176,0.501960813999176,0.501960813999176);
#320=CARTESIAN_POINT('',(9.18485099360509E-017,48.7499999999999,-1.49999999999999));
#321=AXIS2_PLACEMENT_3D('',#464,#465,#466);
#322=DRAUGHTING_PRE_DEFINED_CURVE_FONT('continuous');
#323=COLOUR_RGB('',0.501960813999176,0.501960813999176,0.501960813999176);
#324=CARTESIAN_POINT('',(1.16953769318574E-015,48.7499999999999,-19.1000000000004));
#325=AXIS2_PLACEMENT_3D('',#467,#468,#469);
#326=DRAUGHTING_PRE_DEFINED_CURVE_FONT('continuous');
#327=COLOUR_RGB('',0.501960813999176,0.501960813999176,0.501960813999176);
#328=CARTESIAN_POINT('',(-6.23039059066216E-015,20.0865398924474,101.75));
#329=AXIS2_PLACEMENT_3D('',#470,#471,#472);
#330=DRAUGHTING_PRE_DEFINED_CURVE_FONT('continuous');
#331=COLOUR_RGB('',0.501960813999176,0.501960813999176,0.501960813999176);
#332=CARTESIAN_POINT('',(1.04094977927525E-014,37.999999898742,-169.999999999999));
#333=AXIS2_PLACEMENT_3D('',#473,#474,#475);
#334=DRAUGHTING_PRE_DEFINED_CURVE_FONT('continuous');
#335=COLOUR_RGB('',0.501960813999176,0.501960813999176,0.501960813999176);
#336=CARTESIAN_POINT('',(4.80821116265868E-016,48.75,-7.85240473580847));
#337=AXIS2_PLACEMENT_3D('',#476,#477,#478);
#338=SURFACE_SIDE_STYLE('',(#479));
#339=DRAUGHTING_PRE_DEFINED_CURVE_FONT('continuous');
#340=COLOUR_RGB('',0.501960813999176,0.501960813999176,0.501960813999176);
#341=EDGE_LOOP('',(#480));
#342=AXIS2_PLACEMENT_3D('',#481,#482,#483);
#343=SURFACE_SIDE_STYLE('',(#484));
#344=DRAUGHTING_PRE_DEFINED_CURVE_FONT('continuous');
#345=COLOUR_RGB('',0.501960813999176,0.501960813999176,0.501960813999176);
#346=EDGE_LOOP('',(#485));
#347=EDGE_LOOP('',(#486));
#348=AXIS2_PLACEMENT_3D('',#487,#488,#489);
#349=DRAUGHTING_PRE_DEFINED_CURVE_FONT('continuous');
#350=COLOUR_RGB('',0.501960813999176,0.501960813999176,0.501960813999176);
#351=CARTESIAN_POINT('',(9.18485099360511E-017,34.9250000000001,-1.5));
#352=AXIS2_PLACEMENT_3D('',#490,#491,#492);
#353=DRAUGHTING_PRE_DEFINED_CURVE_FONT('continuous');
#354=COLOUR_RGB('',0.501960813999176,0.501960813999176,0.501960813999176);
#355=CARTESIAN_POINT('',(1.47569939297257E-015,38.0000001910176,-24.1000000000001));
#356=AXIS2_PLACEMENT_3D('',#493,#494,#495);
#357=DRAUGHTING_PRE_DEFINED_CURVE_FONT('continuous');
#358=COLOUR_RGB('',0.501960813999176,0.501960813999176,0.501960813999176);
#359=CARTESIAN_POINT('',(5.6257212335836E-016,45.6249999999999,-9.18750000000073));
#360=AXIS2_PLACEMENT_3D('',#496,#497,#498);
#361=DRAUGHTING_PRE_DEFINED_CURVE_FONT('continuous');
#362=COLOUR_RGB('',0.501960813999176,0.501960813999176,0.501960813999176);
#363=CARTESIAN_POINT('',(7.96785823695291E-016,46.4375471694767,-13.0125000000007));
#364=AXIS2_PLACEMENT_3D('',#499,#500,#501);
#365=SURFACE_SIDE_STYLE('',(#502));
#366=DRAUGHTING_PRE_DEFINED_CURVE_FONT('continuous');
#367=COLOUR_RGB('',0.501960813999176,0.501960813999176,0.501960813999176);
#368=EDGE_LOOP('',(#503));
#369=EDGE_LOOP('',(#504));
#370=AXIS2_PLACEMENT_3D('',#505,#506,#507);
#371=SURFACE_SIDE_STYLE('',(#508));
#372=DRAUGHTING_PRE_DEFINED_CURVE_FONT('continuous');
#373=COLOUR_RGB('',0.501960813999176,0.501960813999176,0.501960813999176);
#374=DRAUGHTING_PRE_DEFINED_CURVE_FONT('continuous');
#375=COLOUR_RGB('',0.501960813999176,0.501960813999176,0.501960813999176);
#376=CARTESIAN_POINT('',(8.78536830787696E-016,48.7499999999998,-14.3475952641916));
#377=AXIS2_PLACEMENT_3D('',#509,#510,#511);
#378=SURFACE_SIDE_STYLE('',(#512));
#379=DRAUGHTING_PRE_DEFINED_CURVE_FONT('continuous');
#380=COLOUR_RGB('',0.501960813999176,0.501960813999176,0.501960813999176);
#381=EDGE_LOOP('',(#513));
#382=EDGE_LOOP('',(#514));
#383=AXIS2_PLACEMENT_3D('',#515,#516,#517);
#384=SURFACE_SIDE_STYLE('',(#518));
#385=DRAUGHTING_PRE_DEFINED_CURVE_FONT('continuous');
#386=COLOUR_RGB('',0.501960813999176,0.501960813999176,0.501960813999176);
#387=EDGE_LOOP('',(#519));
#388=EDGE_LOOP('',(#520));
#389=AXIS2_PLACEMENT_3D('',#521,#522,#523);
#390=SURFACE_SIDE_STYLE('',(#524));
#391=DRAUGHTING_PRE_DEFINED_CURVE_FONT('continuous');
#392=COLOUR_RGB('',0.501960813999176,0.501960813999176,0.501960813999176);
#393=EDGE_LOOP('',(#525));
#394=EDGE_LOOP('',(#526));
#395=AXIS2_PLACEMENT_3D('',#527,#528,#529);
#396=DRAUGHTING_PRE_DEFINED_CURVE_FONT('continuous');
#397=COLOUR_RGB('',0.501960813999176,0.501960813999176,0.501960813999176);
#398=CARTESIAN_POINT('',(4.43210477302706E-029,34.9250000000001,-7.2657089489587E-013));
#399=AXIS2_PLACEMENT_3D('',#530,#531,#532);
#400=SURFACE_SIDE_STYLE('',(#533));
#401=DRAUGHTING_PRE_DEFINED_CURVE_FONT('continuous');
#402=COLOUR_RGB('',0.501960813999176,0.501960813999176,0.501960813999176);
#403=EDGE_LOOP('',(#534));
#404=EDGE_LOOP('',(#535));
#405=AXIS2_PLACEMENT_3D('',#536,#537,#538);
#406=DRAUGHTING_PRE_DEFINED_CURVE_FONT('continuous');
#407=COLOUR_RGB('',0.501960813999176,0.501960813999176,0.501960813999176);
#408=CARTESIAN_POINT('',(5.62572123358287E-016,46.4375471694764,-9.18749999999954));
#409=AXIS2_PLACEMENT_3D('',#539,#540,#541);
#410=SURFACE_SIDE_STYLE('',(#542));
#411=DRAUGHTING_PRE_DEFINED_CURVE_FONT('continuous');
#412=COLOUR_RGB('',0.501960813999176,0.501960813999176,0.501960813999176);
#413=EDGE_LOOP('',(#543));
#414=EDGE_LOOP('',(#544));
#415=AXIS2_PLACEMENT_3D('',#545,#546,#547);
#417=SURFACE_STYLE_FILL_AREA(#548);
#418=ORIENTED_EDGE('',*,*,#97,.F.);
#419=ORIENTED_EDGE('',*,*,#60,.T.);
#420=CARTESIAN_POINT('',(1.32261854307916E-015,2.64523708615831E-015,-21.6000000000003));
#421=DIRECTION('',(-6.12323399573677E-017,-1.22464679914732E-016,1.0));
#422=DIRECTION('',(-1.23259516440799E-032,1.0,1.22464679914732E-016));
#423=SURFACE_STYLE_FILL_AREA(#549);
#424=ORIENTED_EDGE('',*,*,#85,.T.);
#425=CARTESIAN_POINT('',(1.04094977927525E-014,18.999999949371,-170.0));
#426=DIRECTION('',(6.12323399573677E-017,9.09774136606386E-015,-1.0));
#427=DIRECTION('',(-1.0,0.0,-6.12323399573677E-017));
#428=CARTESIAN_POINT('',(1.16953769318575E-015,2.33907538637149E-015,-19.1000000000004));
#429=DIRECTION('',(6.12323399573677E-017,1.22464679914699E-016,-1.0));
#430=DIRECTION('',(-1.23259516440799E-032,1.0,1.22464679914699E-016));
#431=CARTESIAN_POINT('',(7.96785823695218E-016,1.59357164739044E-015,-13.0124999999995));
#432=DIRECTION('',(6.12323399573676E-017,1.22464679914704E-016,-1.0));
#433=DIRECTION('',(-1.23259516440783E-032,1.0,1.22464679914704E-016));
#434=SURFACE_STYLE_FILL_AREA(#550);
#435=ORIENTED_EDGE('',*,*,#81,.T.);
#436=ORIENTED_EDGE('',*,*,#60,.F.);
#437=CARTESIAN_POINT('',(1.16953769318574E-015,45.8750000955088,-19.1000000000004));
#438=DIRECTION('',(6.12323399573677E-017,6.918960639055E-015,-1.0));
#439=DIRECTION('',(-1.0,0.0,-6.12323399573677E-017));
#440=SURFACE_STYLE_FILL_AREA(#551);
#441=ORIENTED_EDGE('',*,*,#95,.F.);
#442=ORIENTED_EDGE('',*,*,#120,.T.);
#443=CARTESIAN_POINT('',(4.59242549680484E-017,9.18485099360967E-017,-0.750000000000369));
#444=DIRECTION('',(-6.12323399573677E-017,-1.22464679914705E-016,1.0));
#445=DIRECTION('',(-1.23259516440793E-032,1.0,1.22464679914705E-016));
#446=SURFACE_STYLE_FILL_AREA(#552);
#447=ORIENTED_EDGE('',*,*,#85,.F.);
#448=ORIENTED_EDGE('',*,*,#97,.T.);
#449=CARTESIAN_POINT('',(5.94259859286252E-015,1.1885197185725E-014,-97.0499999999998));
#450=DIRECTION('',(-6.12323399573677E-017,-1.22464679914751E-016,1.0));
#451=DIRECTION('',(-1.23259516440778E-032,1.0,1.22464679914751E-016));
#452=SURFACE_STYLE_FILL_AREA(#553);
#453=ORIENTED_EDGE('',*,*,#62,.F.);
#454=ORIENTED_EDGE('',*,*,#99,.T.);
#455=CARTESIAN_POINT('',(6.79678973526789E-016,1.35935794705358E-015,-11.1000000000001));
#456=DIRECTION('',(-6.12323399573676E-017,-1.22464679914704E-016,1.0));
#457=DIRECTION('',(-1.23259516440783E-032,1.0,1.22464679914704E-016));
#458=SURFACE_STYLE_FILL_AREA(#554);
#459=ORIENTED_EDGE('',*,*,#125,.F.);
#460=ORIENTED_EDGE('',*,*,#87,.T.);
#461=CARTESIAN_POINT('',(5.21696619812078E-016,1.04339323962416E-015,-8.51995236790401));
#462=DIRECTION('',(-6.12323399573677E-017,-1.22464679914719E-016,1.0));
#463=DIRECTION('',(-1.2325951644075E-032,1.0,1.22464679914719E-016));
#464=CARTESIAN_POINT('',(9.18485099360515E-017,1.83697019872103E-016,-1.5));
#465=DIRECTION('',(6.12323399573677E-017,1.22464679914718E-016,-1.0));
#466=DIRECTION('',(-1.23259516440783E-032,1.0,1.22464679914718E-016));
#467=CARTESIAN_POINT('',(1.16953769318574E-015,2.33907538637149E-015,-19.1000000000004));
#468=DIRECTION('',(6.12323399573677E-017,1.22464679914718E-016,-1.0));
#469=DIRECTION('',(-1.23259516440783E-032,1.0,1.22464679914718E-016));
#470=CARTESIAN_POINT('',(-6.23039059066216E-015,-1.24607811813243E-014,101.75));
#471=DIRECTION('',(6.12323399573677E-017,1.22464679914707E-016,-1.0));
#472=DIRECTION('',(-1.23259516440803E-032,1.0,1.22464679914707E-016));
#473=CARTESIAN_POINT('',(1.04094977927525E-014,2.08189955855049E-014,-169.999999999999));
#474=DIRECTION('',(6.12323399573677E-017,1.22464679914731E-016,-1.0));
#475=DIRECTION('',(-1.23259516440802E-032,1.0,1.22464679914731E-016));
#476=CARTESIAN_POINT('',(4.80821116265868E-016,9.61642232531737E-016,-7.85240473580848));
#477=DIRECTION('',(6.12323399573677E-017,1.22464679914718E-016,-1.0));
#478=DIRECTION('',(-1.23259516440783E-032,1.0,1.22464679914718E-016));
#479=SURFACE_STYLE_FILL_AREA(#555);
#480=ORIENTED_EDGE('',*,*,#83,.F.);
#481=CARTESIAN_POINT('',(-6.23039059066216E-015,10.0432699462237,101.75));
#482=DIRECTION('',(7.49879891330927E-033,-1.22464679914735E-016,1.0));
#483=DIRECTION('',(1.0,6.12323399573677E-017,0.0));
#484=SURFACE_STYLE_FILL_AREA(#556);
#485=ORIENTED_EDGE('',*,*,#120,.F.);
#486=ORIENTED_EDGE('',*,*,#83,.T.);
#487=CARTESIAN_POINT('',(-3.11519529533106E-015,-6.23039059066211E-015,50.8749999999996));
#488=DIRECTION('',(6.12323399573677E-017,1.22464679914764E-016,-1.0));
#489=DIRECTION('',(-1.23259516440764E-032,1.0,1.22464679914764E-016));
#490=CARTESIAN_POINT('',(9.18485099360515E-017,1.83697019872103E-016,-1.5));
#491=DIRECTION('',(6.12323399573677E-017,1.22464679914705E-016,-1.0));
#492=DIRECTION('',(-1.23259516440793E-032,1.0,1.22464679914705E-016));
#493=CARTESIAN_POINT('',(1.47569939297257E-015,2.95139878594513E-015,-24.1000000000001));
#494=DIRECTION('',(6.12323399573677E-017,1.2246467991477E-016,-1.0));
#495=DIRECTION('',(-1.232595164408E-032,1.0,1.2246467991477E-016));
#496=CARTESIAN_POINT('',(5.62572123358361E-016,1.12514424671672E-015,-9.18750000000074));
#497=DIRECTION('',(6.12323399573676E-017,1.22464679914704E-016,-1.0));
#498=DIRECTION('',(-1.23259516440783E-032,1.0,1.22464679914704E-016));
#499=CARTESIAN_POINT('',(7.96785823695291E-016,1.59357164739058E-015,-13.0125000000007));
#500=DIRECTION('',(6.12323399573676E-017,1.22464679914719E-016,-1.0));
#501=DIRECTION('',(-1.23259516440792E-032,1.0,1.22464679914719E-016));
#502=SURFACE_STYLE_FILL_AREA(#557);
#503=ORIENTED_EDGE('',*,*,#125,.T.);
#504=ORIENTED_EDGE('',*,*,#99,.F.);
#505=CARTESIAN_POINT('',(5.62572123358323E-016,46.0312735847381,-9.18750000000013));
#506=DIRECTION('',(6.12323399573677E-017,1.46703476714418E-012,-1.0));
#507=DIRECTION('',(-1.0,0.0,-6.12323399573677E-017));
#508=SURFACE_STYLE_FILL_AREA(#558);
#509=CARTESIAN_POINT('',(8.78536830787696E-016,1.75707366157539E-015,-14.3475952641916));
#510=DIRECTION('',(6.12323399573677E-017,1.22464679914719E-016,-1.0));
#511=DIRECTION('',(-1.23259516440784E-032,1.0,1.22464679914719E-016));
#512=SURFACE_STYLE_FILL_AREA(#559);
#513=ORIENTED_EDGE('',*,*,#79,.F.);
#514=ORIENTED_EDGE('',*,*,#95,.T.);
#515=CARTESIAN_POINT('',(9.1848509936051E-017,41.8375,-1.49999999999999));
#516=DIRECTION('',(7.49879891330927E-033,-1.22464679914735E-016,1.0));
#517=DIRECTION('',(1.0,6.12323399573677E-017,0.0));
#518=SURFACE_STYLE_FILL_AREA(#560);
#519=ORIENTED_EDGE('',*,*,#81,.F.);
#520=ORIENTED_EDGE('',*,*,#109,.T.);
#521=CARTESIAN_POINT('',(1.02403726198672E-015,2.04807452397344E-015,-16.723797632096));
#522=DIRECTION('',(-6.12323399573677E-017,-1.22464679914718E-016,1.0));
#523=DIRECTION('',(-1.23259516440783E-032,1.0,1.22464679914718E-016));
#524=SURFACE_STYLE_FILL_AREA(#561);
#525=ORIENTED_EDGE('',*,*,#87,.F.);
#526=ORIENTED_EDGE('',*,*,#79,.T.);
#527=CARTESIAN_POINT('',(2.8633481310096E-016,5.7266962620192E-016,-4.67620236790424));
#528=DIRECTION('',(-6.12323399573677E-017,-1.22464679914718E-016,1.0));
#529=DIRECTION('',(-1.23259516440783E-032,1.0,1.22464679914718E-016));
#530=CARTESIAN_POINT('',(4.52485221243125E-029,9.04970442486251E-029,-7.38964445190504E-013));
#531=DIRECTION('',(6.12323399573677E-017,1.22464679914705E-016,-1.0));
#532=DIRECTION('',(-1.23259516440793E-032,1.0,1.22464679914705E-016));
#533=SURFACE_STYLE_FILL_AREA(#562);
#534=ORIENTED_EDGE('',*,*,#109,.F.);
#535=ORIENTED_EDGE('',*,*,#101,.T.);
#536=CARTESIAN_POINT('',(8.37661327241494E-016,1.67532265448299E-015,-13.6800476320961));
#537=DIRECTION('',(6.12323399573676E-017,1.22464679914719E-016,-1.0));
#538=DIRECTION('',(-1.2325951644075E-032,1.0,1.22464679914719E-016));
#539=CARTESIAN_POINT('',(5.62572123358288E-016,1.12514424671657E-015,-9.18749999999955));
#540=DIRECTION('',(6.12323399573677E-017,1.22464679914719E-016,-1.0));
#541=DIRECTION('',(-1.23259516440793E-032,1.0,1.22464679914719E-016));
#542=SURFACE_STYLE_FILL_AREA(#563);
#543=ORIENTED_EDGE('',*,*,#101,.F.);
#544=ORIENTED_EDGE('',*,*,#62,.T.);
#545=CARTESIAN_POINT('',(7.96785823695254E-016,46.0312735847383,-13.0125000000001));
#546=DIRECTION('',(-9.03504283764464E-029,1.47553447147948E-012,1.0));
#547=DIRECTION('',(1.0,6.12323399573677E-017,0.0));
#548=FILL_AREA_STYLE('',(#564));
#549=FILL_AREA_STYLE('',(#565));
#550=FILL_AREA_STYLE('',(#566));
#551=FILL_AREA_STYLE('',(#567));
#552=FILL_AREA_STYLE('',(#568));
#553=FILL_AREA_STYLE('',(#569));
#554=FILL_AREA_STYLE('',(#570));
#555=FILL_AREA_STYLE('',(#571));
#556=FILL_AREA_STYLE('',(#572));
#557=FILL_AREA_STYLE('',(#573));
#558=FILL_AREA_STYLE('',(#574));
#559=FILL_AREA_STYLE('',(#575));
#560=FILL_AREA_STYLE('',(#576));
#561=FILL_AREA_STYLE('',(#577));
#562=FILL_AREA_STYLE('',(#578));
#563=FILL_AREA_STYLE('',(#579));
#564=FILL_AREA_STYLE_COLOUR('',#580);
#565=FILL_AREA_STYLE_COLOUR('',#581);
#566=FILL_AREA_STYLE_COLOUR('',#582);
#567=FILL_AREA_STYLE_COLOUR('',#583);
#568=FILL_AREA_STYLE_COLOUR('',#584);
#569=FILL_AREA_STYLE_COLOUR('',#585);
#570=FILL_AREA_STYLE_COLOUR('',#586);
#571=FILL_AREA_STYLE_COLOUR('',#587);
#572=FILL_AREA_STYLE_COLOUR('',#588);
#573=FILL_AREA_STYLE_COLOUR('',#589);
#574=FILL_AREA_STYLE_COLOUR('',#590);
#575=FILL_AREA_STYLE_COLOUR('',#591);
#576=FILL_AREA_STYLE_COLOUR('',#592);
#577=FILL_AREA_STYLE_COLOUR('',#593);
#578=FILL_AREA_STYLE_COLOUR('',#594);
#579=FILL_AREA_STYLE_COLOUR('',#595);
#580=COLOUR_RGB('',0.501960813999176,0.501960813999176,0.501960813999176);
#581=COLOUR_RGB('',0.501960813999176,0.501960813999176,0.501960813999176);
#582=COLOUR_RGB('',0.501960813999176,0.501960813999176,0.501960813999176);
#583=COLOUR_RGB('',0.501960813999176,0.501960813999176,0.501960813999176);
#584=COLOUR_RGB('',0.501960813999176,0.501960813999176,0.501960813999176);
#585=COLOUR_RGB('',0.501960813999176,0.501960813999176,0.501960813999176);
#586=COLOUR_RGB('',0.501960813999176,0.501960813999176,0.501960813999176);
#587=COLOUR_RGB('',0.501960813999176,0.501960813999176,0.501960813999176);
#588=COLOUR_RGB('',0.501960813999176,0.501960813999176,0.501960813999176);
#589=COLOUR_RGB('',0.501960813999176,0.501960813999176,0.501960813999176);
#590=COLOUR_RGB('',0.501960813999176,0.501960813999176,0.501960813999176);
#591=COLOUR_RGB('',0.501960813999176,0.501960813999176,0.501960813999176);
#592=COLOUR_RGB('',0.501960813999176,0.501960813999176,0.501960813999176);
#593=COLOUR_RGB('',0.501960813999176,0.501960813999176,0.501960813999176);
#594=COLOUR_RGB('',0.501960813999176,0.501960813999176,0.501960813999176);
#595=COLOUR_RGB('',0.501960813999176,0.501960813999176,0.501960813999176);
ENDSEC;
END-ISO-10303-21;
