ISO-10303-21;
HEADER;
FILE_DESCRIPTION((''),'1');
FILE_NAME('//Big_tech03/bigt/Translate/11_3D_Field/02_Step_Field/BDV_DV\X2\FF7CFF6CFF9DFF78\X0\/BDV50-MGT12-85.stp','2013-08-01T07:27:18',(''),(''),'Spatial Interop R18','Kubotek KeyCreator V8.5.1 (14335)',' ');
FILE_SCHEMA(('CONFIG_CONTROL_DESIGN'));
ENDSEC;
DATA;
#1=DESIGN_CONTEXT('',#27,'design');
#2=APPLICATION_PROTOCOL_DEFINITION('INTERNATIONAL STANDARD','config_control_design',1994,#27);
#3=PRODUCT_CATEGORY_RELATIONSHIP('NONE','NONE',#28,#29);
#4=DATE_AND_TIME(#30,#31);
#5=DATE_TIME_ROLE('creation_date');
#6=DATE_TIME_ROLE('classification_date');
#7=PERSON_AND_ORGANIZATION_ROLE('creator');
#8=PERSON_AND_ORGANIZATION_ROLE('design_supplier');
#9=PERSON_AND_ORGANIZATION_ROLE('classification_officer');
#10=PERSON_AND_ORGANIZATION_ROLE('design_owner');
#11=APPROVAL_PERSON_ORGANIZATION(#32,#33,#34);
#12=APPROVAL_DATE_TIME(#4,#33);
#13=CC_DESIGN_APPROVAL(#33,(#35,#36,#37));
#14=CC_DESIGN_DATE_AND_TIME_ASSIGNMENT(#4,#5,(#37));
#15=CC_DESIGN_DATE_AND_TIME_ASSIGNMENT(#4,#6,(#35));
#16=CC_DESIGN_PERSON_AND_ORGANIZATION_ASSIGNMENT(#32,#10,(#38));
#17=CC_DESIGN_PERSON_AND_ORGANIZATION_ASSIGNMENT(#32,#7,(#37));
#18=CC_DESIGN_PERSON_AND_ORGANIZATION_ASSIGNMENT(#32,#7,(#36));
#19=CC_DESIGN_PERSON_AND_ORGANIZATION_ASSIGNMENT(#32,#8,(#36));
#20=CC_DESIGN_SECURITY_CLASSIFICATION(#35,(#36));
#21=CC_DESIGN_PERSON_AND_ORGANIZATION_ASSIGNMENT(#32,#9,(#35));
#22=SHAPE_DEFINITION_REPRESENTATION(#39,#40);
#23= (GEOMETRIC_REPRESENTATION_CONTEXT(3)GLOBAL_UNCERTAINTY_ASSIGNED_CONTEXT((#43))GLOBAL_UNIT_ASSIGNED_CONTEXT((#45,#46,#47))REPRESENTATION_CONTEXT('NONE','WORKSPACE'));
#27=APPLICATION_CONTEXT('CONFIGURATION CONTROLLED 3D DESIGNS OF MECHANICAL PARTS AND ASSEMBLIES');
#28=PRODUCT_CATEGORY('part','NONE');
#29=PRODUCT_RELATED_PRODUCT_CATEGORY('detail',' ',(#38));
#30=CALENDAR_DATE(2013,1,7);
#31=LOCAL_TIME(16,27,18.0,#49);
#32=PERSON_AND_ORGANIZATION(#50,#51);
#33=APPROVAL(#52,'SOLID MODEL');
#34=APPROVAL_ROLE('APPROVED');
#35=SECURITY_CLASSIFICATION('','',#53);
#36=PRODUCT_DEFINITION_FORMATION_WITH_SPECIFIED_SOURCE(' ','NONE',#38,.NOT_KNOWN.);
#37=PRODUCT_DEFINITION('NONE','NONE',#36,#1);
#38=PRODUCT('1','1','PART-1-DESC',(#54));
#39=PRODUCT_DEFINITION_SHAPE('NONE','NONE',#37);
#40=ADVANCED_BREP_SHAPE_REPRESENTATION('1',(#55,#56),#23);
#43=UNCERTAINTY_MEASURE_WITH_UNIT(LENGTH_MEASURE(1.0E-006),#45,'','');
#45= (CONVERSION_BASED_UNIT('MILLIMETRE',#59)LENGTH_UNIT()NAMED_UNIT(#62));
#46= (NAMED_UNIT(#64)PLANE_ANGLE_UNIT()SI_UNIT($,.RADIAN.));
#47= (NAMED_UNIT(#64)SOLID_ANGLE_UNIT()SI_UNIT($,.STERADIAN.));
#49=COORDINATED_UNIVERSAL_TIME_OFFSET(9,0,.AHEAD.);
#50=PERSON('','UNSPECIFIED',$,$,$,$);
#51=ORGANIZATION('UNSPECIFIED','UNSPECIFIED','UNSPECIFIED');
#52=APPROVAL_STATUS('approved');
#53=SECURITY_CLASSIFICATION_LEVEL('unclassified');
#54=MECHANICAL_CONTEXT('',#27,'mechanical');
#55=MANIFOLD_SOLID_BREP('1',#70);
#56=AXIS2_PLACEMENT_3D('',#71,#72,#73);
#59=LENGTH_MEASURE_WITH_UNIT(LENGTH_MEASURE(1.0),#74);
#62=DIMENSIONAL_EXPONENTS(1.0,0.0,0.0,0.0,0.0,0.0,0.0);
#64=DIMENSIONAL_EXPONENTS(0.0,0.0,0.0,0.0,0.0,0.0,0.0);
#70=CLOSED_SHELL('',(#75,#76,#77,#78,#79,#80,#81,#82,#83,#84,#85,#86,#87,#88,#89,#90,#91,#92));
#71=CARTESIAN_POINT('',(0.0,0.0,0.0));
#72=DIRECTION('',(0.0,0.0,1.0));
#73=DIRECTION('',(1.0,0.0,0.0));
#74= (NAMED_UNIT(#62)LENGTH_UNIT()SI_UNIT(.MILLI.,.METRE.));
#75=ADVANCED_FACE('',(#94),#95,.T.);
#76=ADVANCED_FACE('',(#96,#97),#98,.T.);
#77=ADVANCED_FACE('',(#99,#100),#101,.T.);
#78=ADVANCED_FACE('',(#102,#103),#104,.T.);
#79=ADVANCED_FACE('',(#105,#106),#107,.T.);
#80=ADVANCED_FACE('',(#108,#109),#110,.T.);
#81=ADVANCED_FACE('',(#111,#112),#113,.T.);
#82=ADVANCED_FACE('',(#114,#115),#116,.T.);
#83=ADVANCED_FACE('',(#117,#118),#119,.T.);
#84=ADVANCED_FACE('',(#120,#121),#122,.T.);
#85=ADVANCED_FACE('',(#123,#124),#125,.T.);
#86=ADVANCED_FACE('',(#126,#127),#128,.T.);
#87=ADVANCED_FACE('',(#129,#130),#131,.T.);
#88=ADVANCED_FACE('',(#132,#133),#134,.T.);
#89=ADVANCED_FACE('',(#135,#136),#137,.T.);
#90=ADVANCED_FACE('',(#138,#139),#140,.T.);
#91=ADVANCED_FACE('',(#141,#142),#143,.T.);
#92=ADVANCED_FACE('',(#144),#145,.T.);
#94=FACE_OUTER_BOUND('',#146,.T.);
#95=PLANE('',#147);
#96=FACE_BOUND('',#148,.T.);
#97=FACE_BOUND('',#149,.T.);
#98=CONICAL_SURFACE('',#150,27.5057291648609,0.144812498273693);
#99=FACE_BOUND('',#151,.T.);
#100=FACE_BOUND('',#152,.T.);
#101=CYLINDRICAL_SURFACE('',#153,34.925);
#102=FACE_OUTER_BOUND('',#154,.T.);
#103=FACE_BOUND('',#155,.T.);
#104=PLANE('',#156);
#105=FACE_BOUND('',#157,.T.);
#106=FACE_BOUND('',#158,.T.);
#107=CYLINDRICAL_SURFACE('',#159,48.75);
#108=FACE_BOUND('',#160,.T.);
#109=FACE_BOUND('',#161,.T.);
#110=CONICAL_SURFACE('',#162,47.56129763,1.04719755328239);
#111=FACE_BOUND('',#163,.T.);
#112=FACE_OUTER_BOUND('',#164,.T.);
#113=PLANE('',#165);
#114=FACE_BOUND('',#166,.T.);
#115=FACE_BOUND('',#167,.T.);
#116=CYLINDRICAL_SURFACE('',#168,45.625);
#117=FACE_OUTER_BOUND('',#169,.T.);
#118=FACE_BOUND('',#170,.T.);
#119=PLANE('',#171);
#120=FACE_BOUND('',#172,.T.);
#121=FACE_BOUND('',#173,.T.);
#122=CONICAL_SURFACE('',#174,47.56129763,1.04719755328239);
#123=FACE_BOUND('',#175,.T.);
#124=FACE_BOUND('',#176,.T.);
#125=CYLINDRICAL_SURFACE('',#177,48.75);
#126=FACE_BOUND('',#178,.T.);
#127=FACE_OUTER_BOUND('',#179,.T.);
#128=PLANE('',#180);
#129=FACE_BOUND('',#181,.T.);
#130=FACE_BOUND('',#182,.T.);
#131=CYLINDRICAL_SURFACE('',#183,40.0);
#132=FACE_BOUND('',#184,.T.);
#133=FACE_OUTER_BOUND('',#185,.T.);
#134=PLANE('',#186);
#135=FACE_BOUND('',#187,.T.);
#136=FACE_BOUND('',#188,.T.);
#137=CONICAL_SURFACE('',#189,23.0,0.785398163397448);
#138=FACE_BOUND('',#190,.T.);
#139=FACE_BOUND('',#191,.T.);
#140=CYLINDRICAL_SURFACE('',#192,20.5);
#141=FACE_BOUND('',#193,.T.);
#142=FACE_BOUND('',#194,.T.);
#143=CONICAL_SURFACE('',#195,19.4282032322792,0.261799387022768);
#144=FACE_OUTER_BOUND('',#196,.T.);
#145=PLANE('',#197);
#146=EDGE_LOOP('',(#198));
#147=AXIS2_PLACEMENT_3D('',#199,#200,#201);
#148=EDGE_LOOP('',(#202));
#149=EDGE_LOOP('',(#203));
#150=AXIS2_PLACEMENT_3D('',#204,#205,#206);
#151=EDGE_LOOP('',(#207));
#152=EDGE_LOOP('',(#208));
#153=AXIS2_PLACEMENT_3D('',#209,#210,#211);
#154=EDGE_LOOP('',(#212));
#155=EDGE_LOOP('',(#213));
#156=AXIS2_PLACEMENT_3D('',#214,#215,#216);
#157=EDGE_LOOP('',(#217));
#158=EDGE_LOOP('',(#218));
#159=AXIS2_PLACEMENT_3D('',#219,#220,#221);
#160=EDGE_LOOP('',(#222));
#161=EDGE_LOOP('',(#223));
#162=AXIS2_PLACEMENT_3D('',#224,#225,#226);
#163=EDGE_LOOP('',(#227));
#164=EDGE_LOOP('',(#228));
#165=AXIS2_PLACEMENT_3D('',#229,#230,#231);
#166=EDGE_LOOP('',(#232));
#167=EDGE_LOOP('',(#233));
#168=AXIS2_PLACEMENT_3D('',#234,#235,#236);
#169=EDGE_LOOP('',(#237));
#170=EDGE_LOOP('',(#238));
#171=AXIS2_PLACEMENT_3D('',#239,#240,#241);
#172=EDGE_LOOP('',(#242));
#173=EDGE_LOOP('',(#243));
#174=AXIS2_PLACEMENT_3D('',#244,#245,#246);
#175=EDGE_LOOP('',(#247));
#176=EDGE_LOOP('',(#248));
#177=AXIS2_PLACEMENT_3D('',#249,#250,#251);
#178=EDGE_LOOP('',(#252));
#179=EDGE_LOOP('',(#253));
#180=AXIS2_PLACEMENT_3D('',#254,#255,#256);
#181=EDGE_LOOP('',(#257));
#182=EDGE_LOOP('',(#258));
#183=AXIS2_PLACEMENT_3D('',#259,#260,#261);
#184=EDGE_LOOP('',(#262));
#185=EDGE_LOOP('',(#263));
#186=AXIS2_PLACEMENT_3D('',#264,#265,#266);
#187=EDGE_LOOP('',(#267));
#188=EDGE_LOOP('',(#268));
#189=AXIS2_PLACEMENT_3D('',#269,#270,#271);
#190=EDGE_LOOP('',(#272));
#191=EDGE_LOOP('',(#273));
#192=AXIS2_PLACEMENT_3D('',#274,#275,#276);
#193=EDGE_LOOP('',(#277));
#194=EDGE_LOOP('',(#278));
#195=AXIS2_PLACEMENT_3D('',#279,#280,#281);
#196=EDGE_LOOP('',(#282));
#197=AXIS2_PLACEMENT_3D('',#283,#284,#285);
#198=ORIENTED_EDGE('',*,*,#286,.F.);
#199=CARTESIAN_POINT('',(-6.23039059066216E-015,10.0432291648609,101.75));
#200=DIRECTION('',(-6.12323399573677E-017,-1.22464679914735E-016,1.0));
#201=DIRECTION('',(1.23259516440783E-032,-1.0,-1.22464679914735E-016));
#202=ORIENTED_EDGE('',*,*,#287,.F.);
#203=ORIENTED_EDGE('',*,*,#286,.T.);
#204=CARTESIAN_POINT('',(-3.11519529533108E-015,-6.23039059066216E-015,50.875));
#205=DIRECTION('',(6.12323399573677E-017,1.22464679914735E-016,-1.0));
#206=DIRECTION('',(-1.23259516440783E-032,1.0,1.22464679914735E-016));
#207=ORIENTED_EDGE('',*,*,#288,.F.);
#208=ORIENTED_EDGE('',*,*,#287,.T.);
#209=CARTESIAN_POINT('',(4.59242549680257E-017,9.18485099360515E-017,-0.75));
#210=DIRECTION('',(-6.12323399573677E-017,-1.22464679914735E-016,1.0));
#211=DIRECTION('',(-1.23259516440783E-032,1.0,1.22464679914735E-016));
#212=ORIENTED_EDGE('',*,*,#289,.F.);
#213=ORIENTED_EDGE('',*,*,#288,.T.);
#214=CARTESIAN_POINT('',(9.1848509936051E-017,41.8375,-1.49999999999999));
#215=DIRECTION('',(-6.12323399573677E-017,-1.22464679914735E-016,1.0));
#216=DIRECTION('',(1.23259516440783E-032,-1.0,-1.22464679914735E-016));
#217=ORIENTED_EDGE('',*,*,#290,.F.);
#218=ORIENTED_EDGE('',*,*,#289,.T.);
#219=CARTESIAN_POINT('',(2.86334813229288E-016,5.72669626458576E-016,-4.67620237));
#220=DIRECTION('',(-6.12323399573677E-017,-1.22464679914735E-016,1.0));
#221=DIRECTION('',(-1.23259516440783E-032,1.0,1.22464679914735E-016));
#222=ORIENTED_EDGE('',*,*,#291,.F.);
#223=ORIENTED_EDGE('',*,*,#290,.T.);
#224=CARTESIAN_POINT('',(5.22844726314621E-016,1.04568945262924E-015,-8.53870237));
#225=DIRECTION('',(-6.12323399573677E-017,-1.22464679914735E-016,1.0));
#226=DIRECTION('',(-1.23259516440783E-032,1.0,1.22464679914735E-016));
#227=ORIENTED_EDGE('',*,*,#292,.F.);
#228=ORIENTED_EDGE('',*,*,#291,.T.);
#229=CARTESIAN_POINT('',(5.64868336106716E-016,45.99879763,-9.22499999999999));
#230=DIRECTION('',(6.12323399573677E-017,1.22464679914735E-016,-1.0));
#231=DIRECTION('',(-1.23259516440783E-032,1.0,1.22464679914735E-016));
#232=ORIENTED_EDGE('',*,*,#293,.F.);
#233=ORIENTED_EDGE('',*,*,#292,.T.);
#234=CARTESIAN_POINT('',(6.79678973526781E-016,1.35935794705356E-015,-11.1));
#235=DIRECTION('',(-6.12323399573677E-017,-1.22464679914735E-016,1.0));
#236=DIRECTION('',(-1.23259516440783E-032,1.0,1.22464679914735E-016));
#237=ORIENTED_EDGE('',*,*,#294,.F.);
#238=ORIENTED_EDGE('',*,*,#293,.T.);
#239=CARTESIAN_POINT('',(7.94489610946845E-016,45.99879763,-12.975));
#240=DIRECTION('',(-6.12323399573677E-017,-1.22464679914735E-016,1.0));
#241=DIRECTION('',(1.23259516440783E-032,-1.0,-1.22464679914735E-016));
#242=ORIENTED_EDGE('',*,*,#295,.F.);
#243=ORIENTED_EDGE('',*,*,#294,.T.);
#244=CARTESIAN_POINT('',(8.36513220738942E-016,1.67302644147788E-015,-13.66129763));
#245=DIRECTION('',(6.12323399573677E-017,1.22464679914735E-016,-1.0));
#246=DIRECTION('',(-1.23259516440783E-032,1.0,1.22464679914735E-016));
#247=ORIENTED_EDGE('',*,*,#296,.F.);
#248=ORIENTED_EDGE('',*,*,#295,.T.);
#249=CARTESIAN_POINT('',(1.02403726185838E-015,2.04807452371676E-015,-16.72379763));
#250=DIRECTION('',(-6.12323399573677E-017,-1.22464679914735E-016,1.0));
#251=DIRECTION('',(-1.23259516440783E-032,1.0,1.22464679914735E-016));
#252=ORIENTED_EDGE('',*,*,#297,.F.);
#253=ORIENTED_EDGE('',*,*,#296,.T.);
#254=CARTESIAN_POINT('',(1.16953769318572E-015,44.375,-19.1));
#255=DIRECTION('',(6.12323399573677E-017,1.22464679914735E-016,-1.0));
#256=DIRECTION('',(-1.23259516440783E-032,1.0,1.22464679914735E-016));
#257=ORIENTED_EDGE('',*,*,#298,.F.);
#258=ORIENTED_EDGE('',*,*,#297,.T.);
#259=CARTESIAN_POINT('',(1.6563347958468E-015,3.31266959169359E-015,-27.05));
#260=DIRECTION('',(-6.12323399573677E-017,-1.22464679914735E-016,1.0));
#261=DIRECTION('',(-1.23259516440783E-032,1.0,1.22464679914735E-016));
#262=ORIENTED_EDGE('',*,*,#299,.F.);
#263=ORIENTED_EDGE('',*,*,#298,.T.);
#264=CARTESIAN_POINT('',(2.14313189850787E-015,32.75,-35.0));
#265=DIRECTION('',(6.12323399573677E-017,1.22464679914735E-016,-1.0));
#266=DIRECTION('',(-1.23259516440783E-032,1.0,1.22464679914735E-016));
#267=ORIENTED_EDGE('',*,*,#300,.F.);
#268=ORIENTED_EDGE('',*,*,#299,.T.);
#269=CARTESIAN_POINT('',(2.29621274840129E-015,4.59242549680257E-015,-37.5));
#270=DIRECTION('',(-6.12323399573677E-017,-1.22464679914735E-016,1.0));
#271=DIRECTION('',(-1.23259516440783E-032,1.0,1.22464679914735E-016));
#272=ORIENTED_EDGE('',*,*,#301,.F.);
#273=ORIENTED_EDGE('',*,*,#300,.T.);
#274=CARTESIAN_POINT('',(3.58209188720326E-015,7.16418377440651E-015,-58.4999999950557));
#275=DIRECTION('',(-6.12323399573677E-017,-1.22464679914735E-016,1.0));
#276=DIRECTION('',(-1.23259516440783E-032,1.0,1.22464679914735E-016));
#277=ORIENTED_EDGE('',*,*,#302,.F.);
#278=ORIENTED_EDGE('',*,*,#301,.T.);
#279=CARTESIAN_POINT('',(4.95981953624403E-015,9.91963907248806E-015,-80.9999999950557));
#280=DIRECTION('',(-6.12323399573677E-017,-1.22464679914735E-016,1.0));
#281=DIRECTION('',(-1.23259516440783E-032,1.0,1.22464679914735E-016));
#282=ORIENTED_EDGE('',*,*,#302,.T.);
#283=CARTESIAN_POINT('',(5.20474889637625E-015,9.17820323227919,-85.0));
#284=DIRECTION('',(6.12323399573677E-017,1.22464679914735E-016,-1.0));
#285=DIRECTION('',(-1.23259516440783E-032,1.0,1.22464679914735E-016));
#286=EDGE_CURVE('',#303,#303,#304,.T.);
#287=EDGE_CURVE('',#305,#305,#306,.T.);
#288=EDGE_CURVE('',#307,#307,#308,.T.);
#289=EDGE_CURVE('',#309,#309,#310,.T.);
#290=EDGE_CURVE('',#311,#311,#312,.T.);
#291=EDGE_CURVE('',#313,#313,#314,.T.);
#292=EDGE_CURVE('',#315,#315,#316,.T.);
#293=EDGE_CURVE('',#317,#317,#318,.T.);
#294=EDGE_CURVE('',#319,#319,#320,.T.);
#295=EDGE_CURVE('',#321,#321,#322,.T.);
#296=EDGE_CURVE('',#323,#323,#324,.T.);
#297=EDGE_CURVE('',#325,#325,#326,.T.);
#298=EDGE_CURVE('',#327,#327,#328,.T.);
#299=EDGE_CURVE('',#329,#329,#330,.T.);
#300=EDGE_CURVE('',#331,#331,#332,.T.);
#301=EDGE_CURVE('',#333,#333,#334,.T.);
#302=EDGE_CURVE('',#335,#335,#336,.T.);
#303=VERTEX_POINT('',#337);
#304=CIRCLE('',#338,20.0864583297218);
#305=VERTEX_POINT('',#339);
#306=CIRCLE('',#340,34.925);
#307=VERTEX_POINT('',#341);
#308=CIRCLE('',#342,34.925);
#309=VERTEX_POINT('',#343);
#310=CIRCLE('',#344,48.75);
#311=VERTEX_POINT('',#345);
#312=CIRCLE('',#346,48.75);
#313=VERTEX_POINT('',#347);
#314=CIRCLE('',#348,46.37259526);
#315=VERTEX_POINT('',#349);
#316=CIRCLE('',#350,45.625);
#317=VERTEX_POINT('',#351);
#318=CIRCLE('',#352,45.625);
#319=VERTEX_POINT('',#353);
#320=CIRCLE('',#354,46.37259526);
#321=VERTEX_POINT('',#355);
#322=CIRCLE('',#356,48.75);
#323=VERTEX_POINT('',#357);
#324=CIRCLE('',#358,48.75);
#325=VERTEX_POINT('',#359);
#326=CIRCLE('',#360,40.0);
#327=VERTEX_POINT('',#361);
#328=CIRCLE('',#362,40.0);
#329=VERTEX_POINT('',#363);
#330=CIRCLE('',#364,25.5);
#331=VERTEX_POINT('',#365);
#332=CIRCLE('',#366,20.5);
#333=VERTEX_POINT('',#367);
#334=CIRCLE('',#368,20.5);
#335=VERTEX_POINT('',#369);
#336=CIRCLE('',#370,18.3564064645584);
#337=CARTESIAN_POINT('',(-6.23039059066216E-015,20.0864583297218,101.75));
#338=AXIS2_PLACEMENT_3D('',#371,#372,#373);
#339=CARTESIAN_POINT('',(-4.30483861169435E-031,34.925,4.27707894602213E-015));
#340=AXIS2_PLACEMENT_3D('',#374,#375,#376);
#341=CARTESIAN_POINT('',(9.18485099360511E-017,34.925,-1.5));
#342=AXIS2_PLACEMENT_3D('',#377,#378,#379);
#343=CARTESIAN_POINT('',(9.18485099360509E-017,48.75,-1.49999999999999));
#344=AXIS2_PLACEMENT_3D('',#380,#381,#382);
#345=CARTESIAN_POINT('',(4.80821116522525E-016,48.75,-7.85240473999999));
#346=AXIS2_PLACEMENT_3D('',#383,#384,#385);
#347=CARTESIAN_POINT('',(5.64868336106716E-016,46.37259526,-9.22499999999999));
#348=AXIS2_PLACEMENT_3D('',#386,#387,#388);
#349=CARTESIAN_POINT('',(5.64868336106716E-016,45.625,-9.22499999999999));
#350=AXIS2_PLACEMENT_3D('',#389,#390,#391);
#351=CARTESIAN_POINT('',(7.94489610946845E-016,45.625,-12.975));
#352=AXIS2_PLACEMENT_3D('',#392,#393,#394);
#353=CARTESIAN_POINT('',(7.94489610946845E-016,46.37259526,-12.975));
#354=AXIS2_PLACEMENT_3D('',#395,#396,#397);
#355=CARTESIAN_POINT('',(8.78536830531036E-016,48.75,-14.34759526));
#356=AXIS2_PLACEMENT_3D('',#398,#399,#400);
#357=CARTESIAN_POINT('',(1.16953769318572E-015,48.75,-19.1));
#358=AXIS2_PLACEMENT_3D('',#401,#402,#403);
#359=CARTESIAN_POINT('',(1.16953769318572E-015,40.0,-19.1));
#360=AXIS2_PLACEMENT_3D('',#404,#405,#406);
#361=CARTESIAN_POINT('',(2.14313189850787E-015,40.0,-35.0));
#362=AXIS2_PLACEMENT_3D('',#407,#408,#409);
#363=CARTESIAN_POINT('',(2.14313189850787E-015,25.5,-35.0));
#364=AXIS2_PLACEMENT_3D('',#410,#411,#412);
#365=CARTESIAN_POINT('',(2.44929359829471E-015,20.5,-40.0));
#366=AXIS2_PLACEMENT_3D('',#413,#414,#415);
#367=CARTESIAN_POINT('',(4.71489017611181E-015,20.5,-76.9999999901114));
#368=AXIS2_PLACEMENT_3D('',#416,#417,#418);
#369=CARTESIAN_POINT('',(5.20474889637625E-015,18.3564064645584,-85.0));
#370=AXIS2_PLACEMENT_3D('',#419,#420,#421);
#371=CARTESIAN_POINT('',(-6.23039059066216E-015,-1.24607811813243E-014,101.75));
#372=DIRECTION('',(6.12323399573677E-017,1.22464679914735E-016,-1.0));
#373=DIRECTION('',(-1.23259516440783E-032,1.0,1.22464679914735E-016));
#374=CARTESIAN_POINT('',(0.0,0.0,0.0));
#375=DIRECTION('',(6.12323399573677E-017,1.22464679914735E-016,-1.0));
#376=DIRECTION('',(-1.23259516440783E-032,1.0,1.22464679914735E-016));
#377=CARTESIAN_POINT('',(9.18485099360515E-017,1.83697019872103E-016,-1.5));
#378=DIRECTION('',(6.12323399573677E-017,1.22464679914735E-016,-1.0));
#379=DIRECTION('',(-1.23259516440783E-032,1.0,1.22464679914735E-016));
#380=CARTESIAN_POINT('',(9.18485099360515E-017,1.83697019872103E-016,-1.5));
#381=DIRECTION('',(6.12323399573677E-017,1.22464679914735E-016,-1.0));
#382=DIRECTION('',(-1.23259516440783E-032,1.0,1.22464679914735E-016));
#383=CARTESIAN_POINT('',(4.80821116522525E-016,9.6164223304505E-016,-7.85240474));
#384=DIRECTION('',(6.12323399573677E-017,1.22464679914735E-016,-1.0));
#385=DIRECTION('',(-1.23259516440783E-032,1.0,1.22464679914735E-016));
#386=CARTESIAN_POINT('',(5.64868336106716E-016,1.12973667221343E-015,-9.22499999999999));
#387=DIRECTION('',(6.12323399573677E-017,1.22464679914735E-016,-1.0));
#388=DIRECTION('',(-1.23259516440783E-032,1.0,1.22464679914735E-016));
#389=CARTESIAN_POINT('',(5.64868336106716E-016,1.12973667221343E-015,-9.22499999999999));
#390=DIRECTION('',(6.12323399573677E-017,1.22464679914735E-016,-1.0));
#391=DIRECTION('',(-1.23259516440783E-032,1.0,1.22464679914735E-016));
#392=CARTESIAN_POINT('',(7.94489610946845E-016,1.58897922189369E-015,-12.975));
#393=DIRECTION('',(6.12323399573677E-017,1.22464679914735E-016,-1.0));
#394=DIRECTION('',(-1.23259516440783E-032,1.0,1.22464679914735E-016));
#395=CARTESIAN_POINT('',(7.94489610946845E-016,1.58897922189369E-015,-12.975));
#396=DIRECTION('',(6.12323399573677E-017,1.22464679914735E-016,-1.0));
#397=DIRECTION('',(-1.23259516440783E-032,1.0,1.22464679914735E-016));
#398=CARTESIAN_POINT('',(8.78536830531037E-016,1.75707366106207E-015,-14.34759526));
#399=DIRECTION('',(6.12323399573677E-017,1.22464679914735E-016,-1.0));
#400=DIRECTION('',(-1.23259516440783E-032,1.0,1.22464679914735E-016));
#401=CARTESIAN_POINT('',(1.16953769318572E-015,2.33907538637144E-015,-19.1));
#402=DIRECTION('',(6.12323399573677E-017,1.22464679914735E-016,-1.0));
#403=DIRECTION('',(-1.23259516440783E-032,1.0,1.22464679914735E-016));
#404=CARTESIAN_POINT('',(1.16953769318572E-015,2.33907538637144E-015,-19.1));
#405=DIRECTION('',(6.12323399573677E-017,1.22464679914735E-016,-1.0));
#406=DIRECTION('',(-1.23259516440783E-032,1.0,1.22464679914735E-016));
#407=CARTESIAN_POINT('',(2.14313189850787E-015,4.28626379701574E-015,-35.0));
#408=DIRECTION('',(6.12323399573677E-017,1.22464679914735E-016,-1.0));
#409=DIRECTION('',(-1.23259516440783E-032,1.0,1.22464679914735E-016));
#410=CARTESIAN_POINT('',(2.14313189850787E-015,4.28626379701574E-015,-35.0));
#411=DIRECTION('',(6.12323399573677E-017,1.22464679914735E-016,-1.0));
#412=DIRECTION('',(-1.23259516440783E-032,1.0,1.22464679914735E-016));
#413=CARTESIAN_POINT('',(2.44929359829471E-015,4.89858719658941E-015,-40.0));
#414=DIRECTION('',(6.12323399573677E-017,1.22464679914735E-016,-1.0));
#415=DIRECTION('',(-1.23259516440783E-032,1.0,1.22464679914735E-016));
#416=CARTESIAN_POINT('',(4.71489017611181E-015,9.42978035222361E-015,-76.9999999901114));
#417=DIRECTION('',(6.12323399573677E-017,1.22464679914735E-016,-1.0));
#418=DIRECTION('',(-1.23259516440783E-032,1.0,1.22464679914735E-016));
#419=CARTESIAN_POINT('',(5.20474889637625E-015,1.04094977927525E-014,-85.0));
#420=DIRECTION('',(6.12323399573677E-017,1.22464679914735E-016,-1.0));
#421=DIRECTION('',(-1.23259516440783E-032,1.0,1.22464679914735E-016));
ENDSEC;
END-ISO-10303-21;
