ISO-10303-21;
HEADER;
FILE_DESCRIPTION((''),'1');
FILE_NAME('//Big_tech03/bigt/Translate/21_\X2\8F2A90ED7DDA\X0\-DXF/63_\X2\30B530A430C930AB30C330BF30A230FC30D0\X0\A\X2\578B\X0\ SCA/BBT/BBT50/BBT50-SCA25.4-90.stp','2012-05-28T06:19:35',(''),(''),'Spatial Interop R18','Kubotek KeyCreator V8.5.1 (14335)',' ');
FILE_SCHEMA(('CONFIG_CONTROL_DESIGN'));
ENDSEC;
DATA;
#1=DESIGN_CONTEXT('',#27,'design');
#2=APPLICATION_PROTOCOL_DEFINITION('INTERNATIONAL STANDARD','config_control_design',1994,#27);
#3=PRODUCT_CATEGORY_RELATIONSHIP('NONE','NONE',#28,#29);
#4=DATE_AND_TIME(#30,#31);
#5=DATE_TIME_ROLE('creation_date');
#6=DATE_TIME_ROLE('classification_date');
#7=PERSON_AND_ORGANIZATION_ROLE('creator');
#8=PERSON_AND_ORGANIZATION_ROLE('design_supplier');
#9=PERSON_AND_ORGANIZATION_ROLE('classification_officer');
#10=PERSON_AND_ORGANIZATION_ROLE('design_owner');
#11=APPROVAL_PERSON_ORGANIZATION(#32,#33,#34);
#12=APPROVAL_DATE_TIME(#4,#33);
#13=CC_DESIGN_APPROVAL(#33,(#35,#36,#37));
#14=CC_DESIGN_DATE_AND_TIME_ASSIGNMENT(#4,#5,(#37));
#15=CC_DESIGN_DATE_AND_TIME_ASSIGNMENT(#4,#6,(#35));
#16=CC_DESIGN_PERSON_AND_ORGANIZATION_ASSIGNMENT(#32,#10,(#38));
#17=CC_DESIGN_PERSON_AND_ORGANIZATION_ASSIGNMENT(#32,#7,(#37));
#18=CC_DESIGN_PERSON_AND_ORGANIZATION_ASSIGNMENT(#32,#7,(#36));
#19=CC_DESIGN_PERSON_AND_ORGANIZATION_ASSIGNMENT(#32,#8,(#36));
#20=CC_DESIGN_SECURITY_CLASSIFICATION(#35,(#36));
#21=CC_DESIGN_PERSON_AND_ORGANIZATION_ASSIGNMENT(#32,#9,(#35));
#22=SHAPE_DEFINITION_REPRESENTATION(#39,#40);
#23= (GEOMETRIC_REPRESENTATION_CONTEXT(3)GLOBAL_UNCERTAINTY_ASSIGNED_CONTEXT((#43))GLOBAL_UNIT_ASSIGNED_CONTEXT((#45,#46,#47))REPRESENTATION_CONTEXT('NONE','WORKSPACE'));
#27=APPLICATION_CONTEXT('CONFIGURATION CONTROLLED 3D DESIGNS OF MECHANICAL PARTS AND ASSEMBLIES');
#28=PRODUCT_CATEGORY('part','NONE');
#29=PRODUCT_RELATED_PRODUCT_CATEGORY('detail',' ',(#38));
#30=CALENDAR_DATE(2012,28,4);
#31=LOCAL_TIME(15,19,35.0,#49);
#32=PERSON_AND_ORGANIZATION(#50,#51);
#33=APPROVAL(#52,'SOLID MODEL');
#34=APPROVAL_ROLE('APPROVED');
#35=SECURITY_CLASSIFICATION('','',#53);
#36=PRODUCT_DEFINITION_FORMATION_WITH_SPECIFIED_SOURCE(' ','NONE',#38,.NOT_KNOWN.);
#37=PRODUCT_DEFINITION('NONE','NONE',#36,#1);
#38=PRODUCT('1','1','PART-1-DESC',(#54));
#39=PRODUCT_DEFINITION_SHAPE('NONE','NONE',#37);
#40=ADVANCED_BREP_SHAPE_REPRESENTATION('1',(#55,#56),#23);
#43=UNCERTAINTY_MEASURE_WITH_UNIT(LENGTH_MEASURE(1.0E-006),#45,'','');
#45= (CONVERSION_BASED_UNIT('MILLIMETRE',#59)LENGTH_UNIT()NAMED_UNIT(#62));
#46= (NAMED_UNIT(#64)PLANE_ANGLE_UNIT()SI_UNIT($,.RADIAN.));
#47= (NAMED_UNIT(#64)SOLID_ANGLE_UNIT()SI_UNIT($,.STERADIAN.));
#49=COORDINATED_UNIVERSAL_TIME_OFFSET(9,0,.AHEAD.);
#50=PERSON('','UNSPECIFIED',$,$,$,$);
#51=ORGANIZATION('UNSPECIFIED','UNSPECIFIED','UNSPECIFIED');
#52=APPROVAL_STATUS('approved');
#53=SECURITY_CLASSIFICATION_LEVEL('unclassified');
#54=MECHANICAL_CONTEXT('',#27,'mechanical');
#55=MANIFOLD_SOLID_BREP('1',#70);
#56=AXIS2_PLACEMENT_3D('',#71,#72,#73);
#59=LENGTH_MEASURE_WITH_UNIT(LENGTH_MEASURE(1.0),#74);
#62=DIMENSIONAL_EXPONENTS(1.0,0.0,0.0,0.0,0.0,0.0,0.0);
#64=DIMENSIONAL_EXPONENTS(0.0,0.0,0.0,0.0,0.0,0.0,0.0);
#70=CLOSED_SHELL('',(#75,#76,#77,#78,#79,#80,#81,#82,#83,#84,#85,#86,#87,#88,#89,#90,#91,#92,#93));
#71=CARTESIAN_POINT('',(0.0,0.0,0.0));
#72=DIRECTION('',(0.0,0.0,1.0));
#73=DIRECTION('',(1.0,0.0,0.0));
#74= (NAMED_UNIT(#62)LENGTH_UNIT()SI_UNIT(.MILLI.,.METRE.));
#75=ADVANCED_FACE('',(#95,#96),#97,.T.);
#76=ADVANCED_FACE('',(#98,#99),#100,.T.);
#77=ADVANCED_FACE('',(#101,#102),#103,.T.);
#78=ADVANCED_FACE('',(#104,#105),#106,.T.);
#79=ADVANCED_FACE('',(#107,#108),#109,.T.);
#80=ADVANCED_FACE('',(#110,#111),#112,.T.);
#81=ADVANCED_FACE('',(#113,#114),#115,.T.);
#82=ADVANCED_FACE('',(#116),#117,.T.);
#83=ADVANCED_FACE('',(#118,#119),#120,.T.);
#84=ADVANCED_FACE('',(#121,#122),#123,.T.);
#85=ADVANCED_FACE('',(#124,#125),#126,.T.);
#86=ADVANCED_FACE('',(#127,#128),#129,.T.);
#87=ADVANCED_FACE('',(#130,#131),#132,.T.);
#88=ADVANCED_FACE('',(#133,#134),#135,.T.);
#89=ADVANCED_FACE('',(#136,#137),#138,.T.);
#90=ADVANCED_FACE('',(#139,#140),#141,.T.);
#91=ADVANCED_FACE('',(#142,#143),#144,.T.);
#92=ADVANCED_FACE('',(#145),#146,.T.);
#93=ADVANCED_FACE('',(#147,#148),#149,.T.);
#95=FACE_BOUND('',#150,.T.);
#96=FACE_BOUND('',#151,.T.);
#97=CYLINDRICAL_SURFACE('',#152,20.0);
#98=FACE_BOUND('',#153,.T.);
#99=FACE_OUTER_BOUND('',#154,.T.);
#100=PLANE('',#155);
#101=FACE_BOUND('',#156,.T.);
#102=FACE_BOUND('',#157,.T.);
#103=CYLINDRICAL_SURFACE('',#158,12.7);
#104=FACE_BOUND('',#159,.T.);
#105=FACE_OUTER_BOUND('',#160,.T.);
#106=PLANE('',#161);
#107=FACE_BOUND('',#162,.T.);
#108=FACE_BOUND('',#163,.T.);
#109=CYLINDRICAL_SURFACE('',#164,10.75);
#110=FACE_OUTER_BOUND('',#165,.T.);
#111=FACE_BOUND('',#166,.T.);
#112=PLANE('',#167);
#113=FACE_BOUND('',#168,.T.);
#114=FACE_BOUND('',#169,.T.);
#115=CYLINDRICAL_SURFACE('',#170,12.0);
#116=FACE_OUTER_BOUND('',#171,.T.);
#117=PLANE('',#172);
#118=FACE_BOUND('',#173,.T.);
#119=FACE_BOUND('',#174,.T.);
#120=CONICAL_SURFACE('',#175,21.5,0.785398163397448);
#121=FACE_BOUND('',#176,.T.);
#122=FACE_BOUND('',#177,.T.);
#123=CYLINDRICAL_SURFACE('',#178,34.925);
#124=FACE_OUTER_BOUND('',#179,.T.);
#125=FACE_BOUND('',#180,.T.);
#126=PLANE('',#181);
#127=FACE_BOUND('',#182,.T.);
#128=FACE_BOUND('',#183,.T.);
#129=CYLINDRICAL_SURFACE('',#184,50.0);
#130=FACE_BOUND('',#185,.T.);
#131=FACE_BOUND('',#186,.T.);
#132=CONICAL_SURFACE('',#187,46.25,1.04719755108882);
#133=FACE_BOUND('',#188,.T.);
#134=FACE_BOUND('',#189,.T.);
#135=CYLINDRICAL_SURFACE('',#190,42.5);
#136=FACE_BOUND('',#191,.T.);
#137=FACE_BOUND('',#192,.T.);
#138=CONICAL_SURFACE('',#193,46.25,1.04719755108882);
#139=FACE_BOUND('',#194,.T.);
#140=FACE_BOUND('',#195,.T.);
#141=CYLINDRICAL_SURFACE('',#196,50.0);
#142=FACE_BOUND('',#197,.T.);
#143=FACE_OUTER_BOUND('',#198,.T.);
#144=PLANE('',#199);
#145=FACE_OUTER_BOUND('',#200,.T.);
#146=PLANE('',#201);
#147=FACE_BOUND('',#202,.T.);
#148=FACE_BOUND('',#203,.T.);
#149=CONICAL_SURFACE('',#204,27.5020833325942,0.144812498253157);
#150=EDGE_LOOP('',(#205));
#151=EDGE_LOOP('',(#206));
#152=AXIS2_PLACEMENT_3D('',#207,#208,#209);
#153=EDGE_LOOP('',(#210));
#154=EDGE_LOOP('',(#211));
#155=AXIS2_PLACEMENT_3D('',#212,#213,#214);
#156=EDGE_LOOP('',(#215));
#157=EDGE_LOOP('',(#216));
#158=AXIS2_PLACEMENT_3D('',#217,#218,#219);
#159=EDGE_LOOP('',(#220));
#160=EDGE_LOOP('',(#221));
#161=AXIS2_PLACEMENT_3D('',#222,#223,#224);
#162=EDGE_LOOP('',(#225));
#163=EDGE_LOOP('',(#226));
#164=AXIS2_PLACEMENT_3D('',#227,#228,#229);
#165=EDGE_LOOP('',(#230));
#166=EDGE_LOOP('',(#231));
#167=AXIS2_PLACEMENT_3D('',#232,#233,#234);
#168=EDGE_LOOP('',(#235));
#169=EDGE_LOOP('',(#236));
#170=AXIS2_PLACEMENT_3D('',#237,#238,#239);
#171=EDGE_LOOP('',(#240));
#172=AXIS2_PLACEMENT_3D('',#241,#242,#243);
#173=EDGE_LOOP('',(#244));
#174=EDGE_LOOP('',(#245));
#175=AXIS2_PLACEMENT_3D('',#246,#247,#248);
#176=EDGE_LOOP('',(#249));
#177=EDGE_LOOP('',(#250));
#178=AXIS2_PLACEMENT_3D('',#251,#252,#253);
#179=EDGE_LOOP('',(#254));
#180=EDGE_LOOP('',(#255));
#181=AXIS2_PLACEMENT_3D('',#256,#257,#258);
#182=EDGE_LOOP('',(#259));
#183=EDGE_LOOP('',(#260));
#184=AXIS2_PLACEMENT_3D('',#261,#262,#263);
#185=EDGE_LOOP('',(#264));
#186=EDGE_LOOP('',(#265));
#187=AXIS2_PLACEMENT_3D('',#266,#267,#268);
#188=EDGE_LOOP('',(#269));
#189=EDGE_LOOP('',(#270));
#190=AXIS2_PLACEMENT_3D('',#271,#272,#273);
#191=EDGE_LOOP('',(#274));
#192=EDGE_LOOP('',(#275));
#193=AXIS2_PLACEMENT_3D('',#276,#277,#278);
#194=EDGE_LOOP('',(#279));
#195=EDGE_LOOP('',(#280));
#196=AXIS2_PLACEMENT_3D('',#281,#282,#283);
#197=EDGE_LOOP('',(#284));
#198=EDGE_LOOP('',(#285));
#199=AXIS2_PLACEMENT_3D('',#286,#287,#288);
#200=EDGE_LOOP('',(#289));
#201=AXIS2_PLACEMENT_3D('',#290,#291,#292);
#202=EDGE_LOOP('',(#293));
#203=EDGE_LOOP('',(#294));
#204=AXIS2_PLACEMENT_3D('',#295,#296,#297);
#205=ORIENTED_EDGE('',*,*,#298,.F.);
#206=ORIENTED_EDGE('',*,*,#299,.T.);
#207=CARTESIAN_POINT('',(4.01071826720758E-015,8.02143653441516E-015,-65.5));
#208=DIRECTION('',(-6.12323399573677E-017,-1.22464679914735E-016,1.0));
#209=DIRECTION('',(-1.23259516440783E-032,1.0,1.22464679914735E-016));
#210=ORIENTED_EDGE('',*,*,#300,.F.);
#211=ORIENTED_EDGE('',*,*,#298,.T.);
#212=CARTESIAN_POINT('',(5.51091059616309E-015,16.35,-90.0));
#213=DIRECTION('',(6.12323399573677E-017,1.22464679914735E-016,-1.0));
#214=DIRECTION('',(-1.23259516440783E-032,1.0,1.22464679914735E-016));
#215=ORIENTED_EDGE('',*,*,#301,.F.);
#216=ORIENTED_EDGE('',*,*,#300,.T.);
#217=CARTESIAN_POINT('',(6.4293956955236E-015,1.28587913910472E-014,-105.0));
#218=DIRECTION('',(-6.12323399573677E-017,-1.22464679914735E-016,1.0));
#219=DIRECTION('',(-1.23259516440783E-032,1.0,1.22464679914735E-016));
#220=ORIENTED_EDGE('',*,*,#302,.F.);
#221=ORIENTED_EDGE('',*,*,#301,.T.);
#222=CARTESIAN_POINT('',(7.34788079488412E-015,11.725,-120.0));
#223=DIRECTION('',(6.12323399573677E-017,1.22464679914735E-016,-1.0));
#224=DIRECTION('',(-1.23259516440783E-032,1.0,1.22464679914735E-016));
#225=ORIENTED_EDGE('',*,*,#303,.F.);
#226=ORIENTED_EDGE('',*,*,#302,.T.);
#227=CARTESIAN_POINT('',(7.47034547479886E-015,1.49406909495977E-014,-122.0));
#228=DIRECTION('',(-6.12323399573677E-017,-1.22464679914735E-016,1.0));
#229=DIRECTION('',(-1.23259516440783E-032,1.0,1.22464679914735E-016));
#230=ORIENTED_EDGE('',*,*,#304,.F.);
#231=ORIENTED_EDGE('',*,*,#303,.T.);
#232=CARTESIAN_POINT('',(7.59281015471359E-015,11.375,-124.0));
#233=DIRECTION('',(-6.12323399573677E-017,-1.22464679914735E-016,1.0));
#234=DIRECTION('',(1.23259516440783E-032,-1.0,-1.22464679914735E-016));
#235=ORIENTED_EDGE('',*,*,#305,.F.);
#236=ORIENTED_EDGE('',*,*,#304,.T.);
#237=CARTESIAN_POINT('',(8.23574972426595E-015,1.64714994485319E-014,-134.5));
#238=DIRECTION('',(-6.12323399573677E-017,-1.22464679914735E-016,1.0));
#239=DIRECTION('',(-1.23259516440783E-032,1.0,1.22464679914735E-016));
#240=ORIENTED_EDGE('',*,*,#305,.T.);
#241=CARTESIAN_POINT('',(8.87868929381831E-015,6.00000000000002,-145.0));
#242=DIRECTION('',(6.12323399573677E-017,1.22464679914735E-016,-1.0));
#243=DIRECTION('',(-1.23259516440783E-032,1.0,1.22464679914735E-016));
#244=ORIENTED_EDGE('',*,*,#299,.F.);
#245=ORIENTED_EDGE('',*,*,#306,.F.);
#246=CARTESIAN_POINT('',(2.41867742831602E-015,4.83735485663204E-015,-39.5));
#247=DIRECTION('',(-6.12323399573677E-017,-1.22464679914735E-016,1.0));
#248=DIRECTION('',(-1.23259516440783E-032,1.0,1.22464679914735E-016));
#249=ORIENTED_EDGE('',*,*,#307,.F.);
#250=ORIENTED_EDGE('',*,*,#308,.T.);
#251=CARTESIAN_POINT('',(4.59242549680257E-017,9.18485099360515E-017,-0.75));
#252=DIRECTION('',(-6.12323399573677E-017,-1.22464679914735E-016,1.0));
#253=DIRECTION('',(-1.23259516440783E-032,1.0,1.22464679914735E-016));
#254=ORIENTED_EDGE('',*,*,#309,.F.);
#255=ORIENTED_EDGE('',*,*,#307,.T.);
#256=CARTESIAN_POINT('',(9.1848509936051E-017,42.4625,-1.49999999999999));
#257=DIRECTION('',(-6.12323399573677E-017,-1.22464679914735E-016,1.0));
#258=DIRECTION('',(1.23259516440783E-032,-1.0,-1.22464679914735E-016));
#259=ORIENTED_EDGE('',*,*,#310,.F.);
#260=ORIENTED_EDGE('',*,*,#309,.T.);
#261=CARTESIAN_POINT('',(5.26598123633362E-016,1.05319624726672E-015,-8.59999999999999));
#262=DIRECTION('',(-6.12323399573677E-017,-1.22464679914735E-016,1.0));
#263=DIRECTION('',(-1.23259516440783E-032,1.0,1.22464679914735E-016));
#264=ORIENTED_EDGE('',*,*,#311,.F.);
#265=ORIENTED_EDGE('',*,*,#310,.T.);
#266=CARTESIAN_POINT('',(1.09391964220428E-015,2.18783928440857E-015,-17.86506351));
#267=DIRECTION('',(-6.12323399573676E-017,-1.22464679914735E-016,1.0));
#268=DIRECTION('',(-1.23259516440783E-032,1.0,1.22464679914735E-016));
#269=ORIENTED_EDGE('',*,*,#312,.F.);
#270=ORIENTED_EDGE('',*,*,#311,.T.);
#271=CARTESIAN_POINT('',(1.42059028701093E-015,2.84118057402186E-015,-23.2));
#272=DIRECTION('',(-6.12323399573677E-017,-1.22464679914735E-016,1.0));
#273=DIRECTION('',(-1.23259516440783E-032,1.0,1.22464679914735E-016));
#274=ORIENTED_EDGE('',*,*,#313,.F.);
#275=ORIENTED_EDGE('',*,*,#312,.T.);
#276=CARTESIAN_POINT('',(1.74726093181758E-015,3.49452186363515E-015,-28.53493649));
#277=DIRECTION('',(6.12323399573676E-017,1.22464679914735E-016,-1.0));
#278=DIRECTION('',(-1.23259516440783E-032,1.0,1.22464679914735E-016));
#279=ORIENTED_EDGE('',*,*,#314,.F.);
#280=ORIENTED_EDGE('',*,*,#313,.T.);
#281=CARTESIAN_POINT('',(2.10333087753558E-015,4.20666175507116E-015,-34.35));
#282=DIRECTION('',(-6.12323399573677E-017,-1.22464679914735E-016,1.0));
#283=DIRECTION('',(-1.23259516440783E-032,1.0,1.22464679914735E-016));
#284=ORIENTED_EDGE('',*,*,#306,.T.);
#285=ORIENTED_EDGE('',*,*,#314,.T.);
#286=CARTESIAN_POINT('',(2.32682891837997E-015,11.5,-38.0));
#287=DIRECTION('',(6.12323399573677E-017,7.40327928401779E-016,-1.0));
#288=DIRECTION('',(-5.01591641226005E-032,1.0,7.40327928401779E-016));
#289=ORIENTED_EDGE('',*,*,#315,.F.);
#290=CARTESIAN_POINT('',(-6.23345220766003E-015,10.0395833325942,101.8));
#291=DIRECTION('',(-6.12323399573677E-017,-1.22464679914735E-016,1.0));
#292=DIRECTION('',(1.23259516440783E-032,-1.0,-1.22464679914735E-016));
#293=ORIENTED_EDGE('',*,*,#308,.F.);
#294=ORIENTED_EDGE('',*,*,#315,.T.);
#295=CARTESIAN_POINT('',(-3.11672610383001E-015,-6.23345220766003E-015,50.9));
#296=DIRECTION('',(6.12323399573677E-017,1.22464679914735E-016,-1.0));
#297=DIRECTION('',(-1.23259516440783E-032,1.0,1.22464679914735E-016));
#298=EDGE_CURVE('',#316,#316,#317,.T.);
#299=EDGE_CURVE('',#318,#318,#319,.T.);
#300=EDGE_CURVE('',#320,#320,#321,.T.);
#301=EDGE_CURVE('',#322,#322,#323,.T.);
#302=EDGE_CURVE('',#324,#324,#325,.T.);
#303=EDGE_CURVE('',#326,#326,#327,.T.);
#304=EDGE_CURVE('',#328,#328,#329,.T.);
#305=EDGE_CURVE('',#330,#330,#331,.T.);
#306=EDGE_CURVE('',#332,#332,#333,.T.);
#307=EDGE_CURVE('',#334,#334,#335,.T.);
#308=EDGE_CURVE('',#336,#336,#337,.T.);
#309=EDGE_CURVE('',#338,#338,#339,.T.);
#310=EDGE_CURVE('',#340,#340,#341,.T.);
#311=EDGE_CURVE('',#342,#342,#343,.T.);
#312=EDGE_CURVE('',#344,#344,#345,.T.);
#313=EDGE_CURVE('',#346,#346,#347,.T.);
#314=EDGE_CURVE('',#348,#348,#349,.T.);
#315=EDGE_CURVE('',#350,#350,#351,.T.);
#316=VERTEX_POINT('',#352);
#317=CIRCLE('',#353,20.0);
#318=VERTEX_POINT('',#354);
#319=CIRCLE('',#355,20.0);
#320=VERTEX_POINT('',#356);
#321=CIRCLE('',#357,12.7);
#322=VERTEX_POINT('',#358);
#323=CIRCLE('',#359,12.7);
#324=VERTEX_POINT('',#360);
#325=CIRCLE('',#361,10.75);
#326=VERTEX_POINT('',#362);
#327=CIRCLE('',#363,10.75);
#328=VERTEX_POINT('',#364);
#329=CIRCLE('',#365,12.0);
#330=VERTEX_POINT('',#366);
#331=CIRCLE('',#367,12.0);
#332=VERTEX_POINT('',#368);
#333=CIRCLE('',#369,23.0);
#334=VERTEX_POINT('',#370);
#335=CIRCLE('',#371,34.925);
#336=VERTEX_POINT('',#372);
#337=CIRCLE('',#373,34.925);
#338=VERTEX_POINT('',#374);
#339=CIRCLE('',#375,50.0);
#340=VERTEX_POINT('',#376);
#341=CIRCLE('',#377,50.0);
#342=VERTEX_POINT('',#378);
#343=CIRCLE('',#379,42.5);
#344=VERTEX_POINT('',#380);
#345=CIRCLE('',#381,42.5);
#346=VERTEX_POINT('',#382);
#347=CIRCLE('',#383,50.0);
#348=VERTEX_POINT('',#384);
#349=CIRCLE('',#385,50.0);
#350=VERTEX_POINT('',#386);
#351=CIRCLE('',#387,20.0791666651884);
#352=CARTESIAN_POINT('',(5.51091059616309E-015,20.0,-90.0));
#353=AXIS2_PLACEMENT_3D('',#388,#389,#390);
#354=CARTESIAN_POINT('',(2.51052593825207E-015,20.0,-41.0));
#355=AXIS2_PLACEMENT_3D('',#391,#392,#393);
#356=CARTESIAN_POINT('',(5.51091059616309E-015,12.7,-90.0));
#357=AXIS2_PLACEMENT_3D('',#394,#395,#396);
#358=CARTESIAN_POINT('',(7.34788079488412E-015,12.7,-120.0));
#359=AXIS2_PLACEMENT_3D('',#397,#398,#399);
#360=CARTESIAN_POINT('',(7.34788079488412E-015,10.75,-120.0));
#361=AXIS2_PLACEMENT_3D('',#400,#401,#402);
#362=CARTESIAN_POINT('',(7.59281015471359E-015,10.75,-124.0));
#363=AXIS2_PLACEMENT_3D('',#403,#404,#405);
#364=CARTESIAN_POINT('',(7.59281015471359E-015,12.0,-124.0));
#365=AXIS2_PLACEMENT_3D('',#406,#407,#408);
#366=CARTESIAN_POINT('',(8.87868929381831E-015,12.0,-145.0));
#367=AXIS2_PLACEMENT_3D('',#409,#410,#411);
#368=CARTESIAN_POINT('',(2.32682891837997E-015,23.0,-38.0));
#369=AXIS2_PLACEMENT_3D('',#412,#413,#414);
#370=CARTESIAN_POINT('',(9.18485099360511E-017,34.925,-1.5));
#371=AXIS2_PLACEMENT_3D('',#415,#416,#417);
#372=CARTESIAN_POINT('',(-2.53731821621339E-031,34.925,1.39049908199672E-015));
#373=AXIS2_PLACEMENT_3D('',#418,#419,#420);
#374=CARTESIAN_POINT('',(9.18485099360509E-017,50.0,-1.49999999999999));
#375=AXIS2_PLACEMENT_3D('',#421,#422,#423);
#376=CARTESIAN_POINT('',(9.61347737330672E-016,50.0,-15.7));
#377=AXIS2_PLACEMENT_3D('',#424,#425,#426);
#378=CARTESIAN_POINT('',(1.2264915470779E-015,42.5,-20.03012702));
#379=AXIS2_PLACEMENT_3D('',#427,#428,#429);
#380=CARTESIAN_POINT('',(1.61468902694396E-015,42.5,-26.36987298));
#381=AXIS2_PLACEMENT_3D('',#430,#431,#432);
#382=CARTESIAN_POINT('',(1.87983283669119E-015,50.0,-30.7));
#383=AXIS2_PLACEMENT_3D('',#433,#434,#435);
#384=CARTESIAN_POINT('',(2.32682891837997E-015,50.0,-38.0));
#385=AXIS2_PLACEMENT_3D('',#436,#437,#438);
#386=CARTESIAN_POINT('',(-6.23345220766003E-015,20.0791666651884,101.8));
#387=AXIS2_PLACEMENT_3D('',#439,#440,#441);
#388=CARTESIAN_POINT('',(5.51091059616309E-015,1.10218211923262E-014,-90.0));
#389=DIRECTION('',(6.12323399573677E-017,1.22464679914735E-016,-1.0));
#390=DIRECTION('',(-1.23259516440783E-032,1.0,1.22464679914735E-016));
#391=CARTESIAN_POINT('',(2.51052593825207E-015,5.02105187650415E-015,-41.0));
#392=DIRECTION('',(6.12323399573677E-017,1.22464679914735E-016,-1.0));
#393=DIRECTION('',(-1.23259516440783E-032,1.0,1.22464679914735E-016));
#394=CARTESIAN_POINT('',(5.51091059616309E-015,1.10218211923262E-014,-90.0));
#395=DIRECTION('',(6.12323399573677E-017,1.22464679914735E-016,-1.0));
#396=DIRECTION('',(-1.23259516440783E-032,1.0,1.22464679914735E-016));
#397=CARTESIAN_POINT('',(7.34788079488412E-015,1.46957615897682E-014,-120.0));
#398=DIRECTION('',(6.12323399573677E-017,1.22464679914735E-016,-1.0));
#399=DIRECTION('',(-1.23259516440783E-032,1.0,1.22464679914735E-016));
#400=CARTESIAN_POINT('',(7.34788079488412E-015,1.46957615897682E-014,-120.0));
#401=DIRECTION('',(6.12323399573677E-017,1.22464679914735E-016,-1.0));
#402=DIRECTION('',(-1.23259516440783E-032,1.0,1.22464679914735E-016));
#403=CARTESIAN_POINT('',(7.59281015471359E-015,1.51856203094272E-014,-124.0));
#404=DIRECTION('',(6.12323399573677E-017,1.22464679914735E-016,-1.0));
#405=DIRECTION('',(-1.23259516440783E-032,1.0,1.22464679914735E-016));
#406=CARTESIAN_POINT('',(7.59281015471359E-015,1.51856203094272E-014,-124.0));
#407=DIRECTION('',(6.12323399573677E-017,1.22464679914735E-016,-1.0));
#408=DIRECTION('',(-1.23259516440783E-032,1.0,1.22464679914735E-016));
#409=CARTESIAN_POINT('',(8.87868929381831E-015,1.77573785876366E-014,-145.0));
#410=DIRECTION('',(6.12323399573677E-017,1.22464679914735E-016,-1.0));
#411=DIRECTION('',(-1.23259516440783E-032,1.0,1.22464679914735E-016));
#412=CARTESIAN_POINT('',(2.32682891837997E-015,4.65365783675994E-015,-38.0));
#413=DIRECTION('',(-6.12323399573677E-017,-7.40327928401779E-016,1.0));
#414=DIRECTION('',(-5.01591641226005E-032,1.0,7.40327928401779E-016));
#415=CARTESIAN_POINT('',(9.18485099360515E-017,1.83697019872103E-016,-1.5));
#416=DIRECTION('',(6.12323399573677E-017,1.22464679914735E-016,-1.0));
#417=DIRECTION('',(-1.23259516440783E-032,1.0,1.22464679914735E-016));
#418=CARTESIAN_POINT('',(0.0,0.0,0.0));
#419=DIRECTION('',(6.12323399573677E-017,1.22464679914735E-016,-1.0));
#420=DIRECTION('',(-1.23259516440783E-032,1.0,1.22464679914735E-016));
#421=CARTESIAN_POINT('',(9.18485099360515E-017,1.83697019872103E-016,-1.5));
#422=DIRECTION('',(6.12323399573677E-017,1.22464679914735E-016,-1.0));
#423=DIRECTION('',(-1.23259516440783E-032,1.0,1.22464679914735E-016));
#424=CARTESIAN_POINT('',(9.61347737330673E-016,1.92269547466134E-015,-15.7));
#425=DIRECTION('',(6.12323399573677E-017,1.22464679914735E-016,-1.0));
#426=DIRECTION('',(-1.23259516440783E-032,1.0,1.22464679914735E-016));
#427=CARTESIAN_POINT('',(1.2264915470779E-015,2.45298309415579E-015,-20.03012702));
#428=DIRECTION('',(6.12323399573677E-017,1.22464679914735E-016,-1.0));
#429=DIRECTION('',(-1.23259516440783E-032,1.0,1.22464679914735E-016));
#430=CARTESIAN_POINT('',(1.61468902694396E-015,3.22937805388793E-015,-26.36987298));
#431=DIRECTION('',(6.12323399573677E-017,1.22464679914735E-016,-1.0));
#432=DIRECTION('',(-1.23259516440783E-032,1.0,1.22464679914735E-016));
#433=CARTESIAN_POINT('',(1.87983283669119E-015,3.75966567338237E-015,-30.7));
#434=DIRECTION('',(6.12323399573677E-017,1.22464679914735E-016,-1.0));
#435=DIRECTION('',(-1.23259516440783E-032,1.0,1.22464679914735E-016));
#436=CARTESIAN_POINT('',(2.32682891837997E-015,4.65365783675994E-015,-38.0));
#437=DIRECTION('',(6.12323399573677E-017,1.22464679914735E-016,-1.0));
#438=DIRECTION('',(-1.23259516440783E-032,1.0,1.22464679914735E-016));
#439=CARTESIAN_POINT('',(-6.23345220766003E-015,-1.24669044153201E-014,101.8));
#440=DIRECTION('',(6.12323399573677E-017,1.22464679914735E-016,-1.0));
#441=DIRECTION('',(-1.23259516440783E-032,1.0,1.22464679914735E-016));
ENDSEC;
END-ISO-10303-21;
