ISO-10303-21;
HEADER;
FILE_DESCRIPTION((''),'1');
FILE_NAME('//Big_tech03/bigt/Translate/21_\X2\8F2A90ED7DDA\X0\-DXF/62_\X2\30D530A730A430B930DF30EB30A230FC30D0\X0\/04_\X2\30D530A730A430B930DF30EB30A230FC30D0\X0\H\X2\578B\X0\ FMH/BBT/BBT50/BBT50-FMH27-60-150.stp','2012-05-24T23:46:17',(''),(''),'Spatial Interop R18','Kubotek KeyCreator V8.5.1 (14335)',' ');
FILE_SCHEMA(('CONFIG_CONTROL_DESIGN'));
ENDSEC;
DATA;
#1=DESIGN_CONTEXT('',#27,'design');
#2=APPLICATION_PROTOCOL_DEFINITION('INTERNATIONAL STANDARD','config_control_design',1994,#27);
#3=PRODUCT_CATEGORY_RELATIONSHIP('NONE','NONE',#28,#29);
#4=DATE_AND_TIME(#30,#31);
#5=DATE_TIME_ROLE('creation_date');
#6=DATE_TIME_ROLE('classification_date');
#7=PERSON_AND_ORGANIZATION_ROLE('creator');
#8=PERSON_AND_ORGANIZATION_ROLE('design_supplier');
#9=PERSON_AND_ORGANIZATION_ROLE('classification_officer');
#10=PERSON_AND_ORGANIZATION_ROLE('design_owner');
#11=APPROVAL_PERSON_ORGANIZATION(#32,#33,#34);
#12=APPROVAL_DATE_TIME(#4,#33);
#13=CC_DESIGN_APPROVAL(#33,(#35,#36,#37));
#14=CC_DESIGN_DATE_AND_TIME_ASSIGNMENT(#4,#5,(#37));
#15=CC_DESIGN_DATE_AND_TIME_ASSIGNMENT(#4,#6,(#35));
#16=CC_DESIGN_PERSON_AND_ORGANIZATION_ASSIGNMENT(#32,#10,(#38));
#17=CC_DESIGN_PERSON_AND_ORGANIZATION_ASSIGNMENT(#32,#7,(#37));
#18=CC_DESIGN_PERSON_AND_ORGANIZATION_ASSIGNMENT(#32,#7,(#36));
#19=CC_DESIGN_PERSON_AND_ORGANIZATION_ASSIGNMENT(#32,#8,(#36));
#20=CC_DESIGN_SECURITY_CLASSIFICATION(#35,(#36));
#21=CC_DESIGN_PERSON_AND_ORGANIZATION_ASSIGNMENT(#32,#9,(#35));
#22=SHAPE_DEFINITION_REPRESENTATION(#39,#40);
#23= (GEOMETRIC_REPRESENTATION_CONTEXT(3)GLOBAL_UNCERTAINTY_ASSIGNED_CONTEXT((#43))GLOBAL_UNIT_ASSIGNED_CONTEXT((#45,#46,#47))REPRESENTATION_CONTEXT('NONE','WORKSPACE'));
#27=APPLICATION_CONTEXT('CONFIGURATION CONTROLLED 3D DESIGNS OF MECHANICAL PARTS AND ASSEMBLIES');
#28=PRODUCT_CATEGORY('part','NONE');
#29=PRODUCT_RELATED_PRODUCT_CATEGORY('detail',' ',(#38));
#30=CALENDAR_DATE(2012,25,4);
#31=LOCAL_TIME(8,46,17.0,#49);
#32=PERSON_AND_ORGANIZATION(#50,#51);
#33=APPROVAL(#52,'SOLID MODEL');
#34=APPROVAL_ROLE('APPROVED');
#35=SECURITY_CLASSIFICATION('','',#53);
#36=PRODUCT_DEFINITION_FORMATION_WITH_SPECIFIED_SOURCE(' ','NONE',#38,.NOT_KNOWN.);
#37=PRODUCT_DEFINITION('NONE','NONE',#36,#1);
#38=PRODUCT('1','1','PART-1-DESC',(#54));
#39=PRODUCT_DEFINITION_SHAPE('NONE','NONE',#37);
#40=ADVANCED_BREP_SHAPE_REPRESENTATION('1',(#55,#56),#23);
#43=UNCERTAINTY_MEASURE_WITH_UNIT(LENGTH_MEASURE(1.0E-006),#45,'','');
#45= (CONVERSION_BASED_UNIT('MILLIMETRE',#59)LENGTH_UNIT()NAMED_UNIT(#62));
#46= (NAMED_UNIT(#64)PLANE_ANGLE_UNIT()SI_UNIT($,.RADIAN.));
#47= (NAMED_UNIT(#64)SOLID_ANGLE_UNIT()SI_UNIT($,.STERADIAN.));
#49=COORDINATED_UNIVERSAL_TIME_OFFSET(9,0,.AHEAD.);
#50=PERSON('','UNSPECIFIED',$,$,$,$);
#51=ORGANIZATION('UNSPECIFIED','UNSPECIFIED','UNSPECIFIED');
#52=APPROVAL_STATUS('approved');
#53=SECURITY_CLASSIFICATION_LEVEL('unclassified');
#54=MECHANICAL_CONTEXT('',#27,'mechanical');
#55=MANIFOLD_SOLID_BREP('1',#70);
#56=AXIS2_PLACEMENT_3D('',#71,#72,#73);
#59=LENGTH_MEASURE_WITH_UNIT(LENGTH_MEASURE(1.0),#74);
#62=DIMENSIONAL_EXPONENTS(1.0,0.0,0.0,0.0,0.0,0.0,0.0);
#64=DIMENSIONAL_EXPONENTS(0.0,0.0,0.0,0.0,0.0,0.0,0.0);
#70=CLOSED_SHELL('',(#75,#76,#77,#78,#79,#80,#81,#82,#83,#84,#85,#86,#87,#88,#89,#90,#91));
#71=CARTESIAN_POINT('',(0.0,0.0,0.0));
#72=DIRECTION('',(0.0,0.0,1.0));
#73=DIRECTION('',(1.0,0.0,0.0));
#74= (NAMED_UNIT(#62)LENGTH_UNIT()SI_UNIT(.MILLI.,.METRE.));
#75=ADVANCED_FACE('',(#93,#94),#95,.T.);
#76=ADVANCED_FACE('',(#96,#97),#98,.T.);
#77=ADVANCED_FACE('',(#99,#100),#101,.F.);
#78=ADVANCED_FACE('',(#102,#103),#104,.T.);
#79=ADVANCED_FACE('',(#105,#106),#107,.T.);
#80=ADVANCED_FACE('',(#108,#109),#110,.T.);
#81=ADVANCED_FACE('',(#111,#112),#113,.T.);
#82=ADVANCED_FACE('',(#114,#115),#116,.T.);
#83=ADVANCED_FACE('',(#117,#118),#119,.T.);
#84=ADVANCED_FACE('',(#120,#121),#122,.T.);
#85=ADVANCED_FACE('',(#123,#124),#125,.T.);
#86=ADVANCED_FACE('',(#126,#127),#128,.T.);
#87=ADVANCED_FACE('',(#129,#130),#131,.T.);
#88=ADVANCED_FACE('',(#132,#133),#134,.T.);
#89=ADVANCED_FACE('',(#135),#136,.T.);
#90=ADVANCED_FACE('',(#137),#138,.T.);
#91=ADVANCED_FACE('',(#139,#140),#141,.T.);
#93=FACE_BOUND('',#142,.T.);
#94=FACE_BOUND('',#143,.T.);
#95=CONICAL_SURFACE('',#144,34.775,0.785398163397543);
#96=FACE_BOUND('',#145,.T.);
#97=FACE_BOUND('',#146,.T.);
#98=CYLINDRICAL_SURFACE('',#147,34.625);
#99=FACE_BOUND('',#148,.T.);
#100=FACE_BOUND('',#149,.T.);
#101=TOROIDAL_SURFACE('',#150,35.125,0.5);
#102=FACE_OUTER_BOUND('',#151,.T.);
#103=FACE_BOUND('',#152,.T.);
#104=PLANE('',#153);
#105=FACE_BOUND('',#154,.T.);
#106=FACE_BOUND('',#155,.T.);
#107=CYLINDRICAL_SURFACE('',#156,50.0);
#108=FACE_BOUND('',#157,.T.);
#109=FACE_BOUND('',#158,.T.);
#110=CONICAL_SURFACE('',#159,46.25,1.0471975511966);
#111=FACE_BOUND('',#160,.T.);
#112=FACE_BOUND('',#161,.T.);
#113=CYLINDRICAL_SURFACE('',#162,42.5);
#114=FACE_BOUND('',#163,.T.);
#115=FACE_BOUND('',#164,.T.);
#116=CONICAL_SURFACE('',#165,46.25,1.0471975511966);
#117=FACE_BOUND('',#166,.T.);
#118=FACE_BOUND('',#167,.T.);
#119=CYLINDRICAL_SURFACE('',#168,50.0);
#120=FACE_BOUND('',#169,.T.);
#121=FACE_OUTER_BOUND('',#170,.T.);
#122=PLANE('',#171);
#123=FACE_BOUND('',#172,.T.);
#124=FACE_BOUND('',#173,.T.);
#125=CONICAL_SURFACE('',#174,31.4999999999995,0.785398163397355);
#126=FACE_BOUND('',#175,.T.);
#127=FACE_BOUND('',#176,.T.);
#128=CYLINDRICAL_SURFACE('',#177,30.0000000000019);
#129=FACE_BOUND('',#178,.T.);
#130=FACE_OUTER_BOUND('',#179,.T.);
#131=PLANE('',#180);
#132=FACE_BOUND('',#181,.T.);
#133=FACE_BOUND('',#182,.T.);
#134=CYLINDRICAL_SURFACE('',#183,13.5000000000028);
#135=FACE_OUTER_BOUND('',#184,.T.);
#136=PLANE('',#185);
#137=FACE_OUTER_BOUND('',#186,.T.);
#138=PLANE('',#187);
#139=FACE_BOUND('',#188,.T.);
#140=FACE_BOUND('',#189,.T.);
#141=CONICAL_SURFACE('',#190,27.5020833333333,0.144812498238939);
#142=EDGE_LOOP('',(#191));
#143=EDGE_LOOP('',(#192));
#144=AXIS2_PLACEMENT_3D('',#193,#194,#195);
#145=EDGE_LOOP('',(#196));
#146=EDGE_LOOP('',(#197));
#147=AXIS2_PLACEMENT_3D('',#198,#199,#200);
#148=EDGE_LOOP('',(#201));
#149=EDGE_LOOP('',(#202));
#150=AXIS2_PLACEMENT_3D('',#203,#204,#205);
#151=EDGE_LOOP('',(#206));
#152=EDGE_LOOP('',(#207));
#153=AXIS2_PLACEMENT_3D('',#208,#209,#210);
#154=EDGE_LOOP('',(#211));
#155=EDGE_LOOP('',(#212));
#156=AXIS2_PLACEMENT_3D('',#213,#214,#215);
#157=EDGE_LOOP('',(#216));
#158=EDGE_LOOP('',(#217));
#159=AXIS2_PLACEMENT_3D('',#218,#219,#220);
#160=EDGE_LOOP('',(#221));
#161=EDGE_LOOP('',(#222));
#162=AXIS2_PLACEMENT_3D('',#223,#224,#225);
#163=EDGE_LOOP('',(#226));
#164=EDGE_LOOP('',(#227));
#165=AXIS2_PLACEMENT_3D('',#228,#229,#230);
#166=EDGE_LOOP('',(#231));
#167=EDGE_LOOP('',(#232));
#168=AXIS2_PLACEMENT_3D('',#233,#234,#235);
#169=EDGE_LOOP('',(#236));
#170=EDGE_LOOP('',(#237));
#171=AXIS2_PLACEMENT_3D('',#238,#239,#240);
#172=EDGE_LOOP('',(#241));
#173=EDGE_LOOP('',(#242));
#174=AXIS2_PLACEMENT_3D('',#243,#244,#245);
#175=EDGE_LOOP('',(#246));
#176=EDGE_LOOP('',(#247));
#177=AXIS2_PLACEMENT_3D('',#248,#249,#250);
#178=EDGE_LOOP('',(#251));
#179=EDGE_LOOP('',(#252));
#180=AXIS2_PLACEMENT_3D('',#253,#254,#255);
#181=EDGE_LOOP('',(#256));
#182=EDGE_LOOP('',(#257));
#183=AXIS2_PLACEMENT_3D('',#258,#259,#260);
#184=EDGE_LOOP('',(#261));
#185=AXIS2_PLACEMENT_3D('',#262,#263,#264);
#186=EDGE_LOOP('',(#265));
#187=AXIS2_PLACEMENT_3D('',#266,#267,#268);
#188=EDGE_LOOP('',(#269));
#189=EDGE_LOOP('',(#270));
#190=AXIS2_PLACEMENT_3D('',#271,#272,#273);
#191=ORIENTED_EDGE('',*,*,#274,.F.);
#192=ORIENTED_EDGE('',*,*,#275,.T.);
#193=CARTESIAN_POINT('',(9.18485099360376E-018,1.83697019872075E-017,-0.149999999999977));
#194=DIRECTION('',(-6.12323399573677E-017,-1.22464679914735E-016,1.0));
#195=DIRECTION('',(-1.23259516440783E-032,1.0,1.22464679914735E-016));
#196=ORIENTED_EDGE('',*,*,#276,.F.);
#197=ORIENTED_EDGE('',*,*,#274,.T.);
#198=CARTESIAN_POINT('',(4.89858719658966E-017,9.79717439317931E-017,-0.80000000000004));
#199=DIRECTION('',(-6.12323399573677E-017,-1.22464679914735E-016,1.0));
#200=DIRECTION('',(-1.23259516440783E-032,1.0,1.22464679914735E-016));
#201=ORIENTED_EDGE('',*,*,#277,.F.);
#202=ORIENTED_EDGE('',*,*,#276,.T.);
#203=CARTESIAN_POINT('',(7.96020419445856E-017,1.59204083889171E-016,-1.30000000000013));
#204=DIRECTION('',(6.12323399573677E-017,1.22464679914735E-016,-1.0));
#205=DIRECTION('',(-1.0,-4.82715273076902E-033,-6.12323399573677E-017));
#206=ORIENTED_EDGE('',*,*,#278,.F.);
#207=ORIENTED_EDGE('',*,*,#277,.T.);
#208=CARTESIAN_POINT('',(9.18485099361638E-017,42.3333712152522,-1.50000000000184));
#209=DIRECTION('',(-6.12323399573677E-017,3.51728258586906E-013,1.0));
#210=DIRECTION('',(-2.15323171496756E-029,-1.0,3.51728258586906E-013));
#211=ORIENTED_EDGE('',*,*,#279,.F.);
#212=ORIENTED_EDGE('',*,*,#278,.T.);
#213=CARTESIAN_POINT('',(5.26598123633499E-016,1.053196247267E-015,-8.60000000000224));
#214=DIRECTION('',(-6.12323399573677E-017,-1.22464679914735E-016,1.0));
#215=DIRECTION('',(-1.23259516440783E-032,1.0,1.22464679914735E-016));
#216=ORIENTED_EDGE('',*,*,#280,.F.);
#217=ORIENTED_EDGE('',*,*,#279,.T.);
#218=CARTESIAN_POINT('',(1.09391964217128E-015,2.18783928434256E-015,-17.865063509461));
#219=DIRECTION('',(-6.12323399573676E-017,-1.22464679914735E-016,1.0));
#220=DIRECTION('',(-1.23259516440783E-032,1.0,1.22464679914735E-016));
#221=ORIENTED_EDGE('',*,*,#281,.F.);
#222=ORIENTED_EDGE('',*,*,#280,.T.);
#223=CARTESIAN_POINT('',(1.42059028701093E-015,2.84118057402185E-015,-23.1999999999999));
#224=DIRECTION('',(-6.12323399573677E-017,-1.22464679914735E-016,1.0));
#225=DIRECTION('',(-1.23259516440783E-032,1.0,1.22464679914735E-016));
#226=ORIENTED_EDGE('',*,*,#282,.F.);
#227=ORIENTED_EDGE('',*,*,#281,.T.);
#228=CARTESIAN_POINT('',(1.74726093185057E-015,3.49452186370114E-015,-28.5349364905388));
#229=DIRECTION('',(6.12323399573676E-017,1.22464679914735E-016,-1.0));
#230=DIRECTION('',(-1.23259516440783E-032,1.0,1.22464679914735E-016));
#231=ORIENTED_EDGE('',*,*,#283,.F.);
#232=ORIENTED_EDGE('',*,*,#282,.T.);
#233=CARTESIAN_POINT('',(2.1033308775356E-015,4.20666175507119E-015,-34.3500000000003));
#234=DIRECTION('',(-6.12323399573677E-017,-1.22464679914735E-016,1.0));
#235=DIRECTION('',(-1.23259516440783E-032,1.0,1.22464679914735E-016));
#236=ORIENTED_EDGE('',*,*,#284,.F.);
#237=ORIENTED_EDGE('',*,*,#283,.T.);
#238=CARTESIAN_POINT('',(2.32682891838001E-015,41.4999999999996,-38.0000000000006));
#239=DIRECTION('',(6.12323399573677E-017,1.22464679914735E-016,-1.0));
#240=DIRECTION('',(-1.23259516440783E-032,1.0,1.22464679914735E-016));
#241=ORIENTED_EDGE('',*,*,#285,.F.);
#242=ORIENTED_EDGE('',*,*,#284,.T.);
#243=CARTESIAN_POINT('',(2.41867742831606E-015,4.83735485663212E-015,-39.5000000000006));
#244=DIRECTION('',(-6.12323399573677E-017,-1.22464679914735E-016,1.0));
#245=DIRECTION('',(-1.23259516440783E-032,1.0,1.22464679914735E-016));
#246=ORIENTED_EDGE('',*,*,#286,.F.);
#247=ORIENTED_EDGE('',*,*,#285,.T.);
#248=CARTESIAN_POINT('',(5.84768846592891E-015,1.16953769318578E-014,-95.5000000000049));
#249=DIRECTION('',(-6.12323399573676E-017,-1.22464679914735E-016,1.0));
#250=DIRECTION('',(-1.23259516440783E-032,1.0,1.22464679914735E-016));
#251=ORIENTED_EDGE('',*,*,#287,.F.);
#252=ORIENTED_EDGE('',*,*,#286,.T.);
#253=CARTESIAN_POINT('',(9.18485099360571E-015,21.7500000000035,-150.000000000009));
#254=DIRECTION('',(6.12323399573677E-017,1.22464679914735E-016,-1.0));
#255=DIRECTION('',(-1.23259516440783E-032,1.0,1.22464679914735E-016));
#256=ORIENTED_EDGE('',*,*,#288,.F.);
#257=ORIENTED_EDGE('',*,*,#287,.T.);
#258=CARTESIAN_POINT('',(9.79717439317938E-015,1.95943487863588E-014,-160.000000000009));
#259=DIRECTION('',(-6.12323399573677E-017,-1.22464679914735E-016,1.0));
#260=DIRECTION('',(-1.23259516440783E-032,1.0,1.22464679914735E-016));
#261=ORIENTED_EDGE('',*,*,#288,.T.);
#262=CARTESIAN_POINT('',(1.04094977927531E-014,6.75000000000144,-170.000000000009));
#263=DIRECTION('',(6.12323399573677E-017,2.22777648957385E-015,-1.0));
#264=DIRECTION('',(-1.41239120089386E-031,1.0,2.22777648957385E-015));
#265=ORIENTED_EDGE('',*,*,#289,.F.);
#266=CARTESIAN_POINT('',(-6.23345220766003E-015,10.0395833333333,101.8));
#267=DIRECTION('',(-6.12323399573677E-017,-1.22464679914735E-016,1.0));
#268=DIRECTION('',(1.23259516440783E-032,-1.0,-1.22464679914735E-016));
#269=ORIENTED_EDGE('',*,*,#275,.F.);
#270=ORIENTED_EDGE('',*,*,#289,.T.);
#271=CARTESIAN_POINT('',(-3.11672610383001E-015,-6.23345220766003E-015,50.9));
#272=DIRECTION('',(6.12323399573676E-017,1.22464679914735E-016,-1.0));
#273=DIRECTION('',(-1.23259516440783E-032,1.0,1.22464679914735E-016));
#274=EDGE_CURVE('',#290,#290,#291,.T.);
#275=EDGE_CURVE('',#292,#292,#293,.T.);
#276=EDGE_CURVE('',#294,#294,#295,.T.);
#277=EDGE_CURVE('',#296,#296,#297,.T.);
#278=EDGE_CURVE('',#298,#298,#299,.T.);
#279=EDGE_CURVE('',#300,#300,#301,.T.);
#280=EDGE_CURVE('',#302,#302,#303,.T.);
#281=EDGE_CURVE('',#304,#304,#305,.T.);
#282=EDGE_CURVE('',#306,#306,#307,.T.);
#283=EDGE_CURVE('',#308,#308,#309,.T.);
#284=EDGE_CURVE('',#310,#310,#311,.T.);
#285=EDGE_CURVE('',#312,#312,#313,.T.);
#286=EDGE_CURVE('',#314,#314,#315,.T.);
#287=EDGE_CURVE('',#316,#316,#317,.T.);
#288=EDGE_CURVE('',#318,#318,#319,.T.);
#289=EDGE_CURVE('',#320,#320,#321,.T.);
#290=VERTEX_POINT('',#322);
#291=CIRCLE('',#323,34.625);
#292=VERTEX_POINT('',#324);
#293=CIRCLE('',#325,34.925);
#294=VERTEX_POINT('',#326);
#295=CIRCLE('',#327,34.625);
#296=VERTEX_POINT('',#328);
#297=CIRCLE('',#329,34.6667424305044);
#298=VERTEX_POINT('',#330);
#299=CIRCLE('',#331,50.0);
#300=VERTEX_POINT('',#332);
#301=CIRCLE('',#333,50.0);
#302=VERTEX_POINT('',#334);
#303=CIRCLE('',#335,42.5);
#304=VERTEX_POINT('',#336);
#305=CIRCLE('',#337,42.5);
#306=VERTEX_POINT('',#338);
#307=CIRCLE('',#339,50.0);
#308=VERTEX_POINT('',#340);
#309=CIRCLE('',#341,50.0);
#310=VERTEX_POINT('',#342);
#311=CIRCLE('',#343,32.9999999999992);
#312=VERTEX_POINT('',#344);
#313=CIRCLE('',#345,29.9999999999998);
#314=VERTEX_POINT('',#346);
#315=CIRCLE('',#347,30.0000000000041);
#316=VERTEX_POINT('',#348);
#317=CIRCLE('',#349,13.5000000000028);
#318=VERTEX_POINT('',#350);
#319=CIRCLE('',#351,13.5000000000028);
#320=VERTEX_POINT('',#352);
#321=CIRCLE('',#353,20.0791666666667);
#322=CARTESIAN_POINT('',(1.83697019872071E-017,34.625,-0.29999999999995));
#323=AXIS2_PLACEMENT_3D('',#354,#355,#356);
#324=CARTESIAN_POINT('',(-4.30483861169435E-031,34.925,4.27707894602213E-015));
#325=AXIS2_PLACEMENT_3D('',#357,#358,#359);
#326=CARTESIAN_POINT('',(7.96020419445852E-017,34.625,-1.30000000000012));
#327=AXIS2_PLACEMENT_3D('',#360,#361,#362);
#328=CARTESIAN_POINT('',(9.18485099359988E-017,34.6667424305044,-1.49999999999914));
#329=AXIS2_PLACEMENT_3D('',#363,#364,#365);
#330=CARTESIAN_POINT('',(9.18485099363289E-017,50.0,-1.50000000000453));
#331=AXIS2_PLACEMENT_3D('',#366,#367,#368);
#332=CARTESIAN_POINT('',(9.61347737330667E-016,50.0,-15.6999999999999));
#333=AXIS2_PLACEMENT_3D('',#369,#370,#371);
#334=CARTESIAN_POINT('',(1.2264915470119E-015,42.5,-20.0301270189221));
#335=AXIS2_PLACEMENT_3D('',#372,#373,#374);
#336=CARTESIAN_POINT('',(1.61468902700995E-015,42.5,-26.3698729810777));
#337=AXIS2_PLACEMENT_3D('',#375,#376,#377);
#338=CARTESIAN_POINT('',(1.87983283669118E-015,50.0,-30.6999999999999));
#339=AXIS2_PLACEMENT_3D('',#378,#379,#380);
#340=CARTESIAN_POINT('',(2.32682891838001E-015,50.0,-38.0000000000006));
#341=AXIS2_PLACEMENT_3D('',#381,#382,#383);
#342=CARTESIAN_POINT('',(2.32682891838001E-015,32.9999999999992,-38.0000000000006));
#343=AXIS2_PLACEMENT_3D('',#384,#385,#386);
#344=CARTESIAN_POINT('',(2.51052593825211E-015,29.9999999999998,-41.0000000000006));
#345=AXIS2_PLACEMENT_3D('',#387,#388,#389);
#346=CARTESIAN_POINT('',(9.18485099360571E-015,30.0000000000041,-150.000000000009));
#347=AXIS2_PLACEMENT_3D('',#390,#391,#392);
#348=CARTESIAN_POINT('',(9.18485099360571E-015,13.5000000000029,-150.000000000009));
#349=AXIS2_PLACEMENT_3D('',#393,#394,#395);
#350=CARTESIAN_POINT('',(1.04094977927531E-014,13.5000000000029,-170.000000000009));
#351=AXIS2_PLACEMENT_3D('',#396,#397,#398);
#352=CARTESIAN_POINT('',(-6.23345220766003E-015,20.0791666666666,101.8));
#353=AXIS2_PLACEMENT_3D('',#399,#400,#401);
#354=CARTESIAN_POINT('',(1.83697019872075E-017,3.6739403974415E-017,-0.299999999999955));
#355=DIRECTION('',(6.12323399573677E-017,1.22464679914735E-016,-1.0));
#356=DIRECTION('',(-1.23259516440783E-032,1.0,1.22464679914735E-016));
#357=CARTESIAN_POINT('',(0.0,0.0,0.0));
#358=DIRECTION('',(6.12323399573677E-017,1.22464679914735E-016,-1.0));
#359=DIRECTION('',(-1.23259516440783E-032,1.0,1.22464679914735E-016));
#360=CARTESIAN_POINT('',(7.96020419445856E-017,1.59204083889171E-016,-1.30000000000013));
#361=DIRECTION('',(6.12323399573677E-017,1.22464679914735E-016,-1.0));
#362=DIRECTION('',(-1.23259516440783E-032,1.0,1.22464679914735E-016));
#363=CARTESIAN_POINT('',(9.18485099359993E-017,1.83697019871999E-016,-1.49999999999915));
#364=DIRECTION('',(6.12323399573676E-017,1.22464679914735E-016,-1.0));
#365=DIRECTION('',(-1.23259516440783E-032,1.0,1.22464679914735E-016));
#366=CARTESIAN_POINT('',(9.18485099363299E-017,1.8369701987266E-016,-1.50000000000455));
#367=DIRECTION('',(6.12323399573677E-017,1.22464679914735E-016,-1.0));
#368=DIRECTION('',(-1.23259516440783E-032,1.0,1.22464679914735E-016));
#369=CARTESIAN_POINT('',(9.61347737330668E-016,1.92269547466134E-015,-15.6999999999999));
#370=DIRECTION('',(6.12323399573677E-017,1.22464679914735E-016,-1.0));
#371=DIRECTION('',(-1.23259516440783E-032,1.0,1.22464679914735E-016));
#372=CARTESIAN_POINT('',(1.2264915470119E-015,2.45298309402379E-015,-20.0301270189221));
#373=DIRECTION('',(6.12323399573677E-017,1.22464679914735E-016,-1.0));
#374=DIRECTION('',(-1.23259516440783E-032,1.0,1.22464679914735E-016));
#375=CARTESIAN_POINT('',(1.61468902700996E-015,3.22937805401991E-015,-26.3698729810777));
#376=DIRECTION('',(6.12323399573677E-017,1.22464679914735E-016,-1.0));
#377=DIRECTION('',(-1.23259516440783E-032,1.0,1.22464679914735E-016));
#378=CARTESIAN_POINT('',(1.87983283669118E-015,3.75966567338237E-015,-30.6999999999999));
#379=DIRECTION('',(6.12323399573677E-017,1.22464679914735E-016,-1.0));
#380=DIRECTION('',(-1.23259516440783E-032,1.0,1.22464679914735E-016));
#381=CARTESIAN_POINT('',(2.32682891838001E-015,4.65365783676002E-015,-38.0000000000006));
#382=DIRECTION('',(6.12323399573677E-017,1.22464679914735E-016,-1.0));
#383=DIRECTION('',(-1.23259516440783E-032,1.0,1.22464679914735E-016));
#384=CARTESIAN_POINT('',(2.32682891838001E-015,4.65365783676002E-015,-38.0000000000006));
#385=DIRECTION('',(6.12323399573677E-017,1.22464679914735E-016,-1.0));
#386=DIRECTION('',(-1.23259516440783E-032,1.0,1.22464679914735E-016));
#387=CARTESIAN_POINT('',(2.51052593825211E-015,5.02105187650422E-015,-41.0000000000006));
#388=DIRECTION('',(6.12323399573677E-017,1.22464679914735E-016,-1.0));
#389=DIRECTION('',(-1.23259516440783E-032,1.0,1.22464679914735E-016));
#390=CARTESIAN_POINT('',(9.18485099360571E-015,1.83697019872114E-014,-150.000000000009));
#391=DIRECTION('',(6.12323399573677E-017,1.22464679914735E-016,-1.0));
#392=DIRECTION('',(-1.23259516440783E-032,1.0,1.22464679914735E-016));
#393=CARTESIAN_POINT('',(9.18485099360571E-015,1.83697019872114E-014,-150.000000000009));
#394=DIRECTION('',(6.12323399573677E-017,1.22464679914735E-016,-1.0));
#395=DIRECTION('',(-1.23259516440783E-032,1.0,1.22464679914735E-016));
#396=CARTESIAN_POINT('',(1.04094977927531E-014,2.08189955855061E-014,-170.000000000009));
#397=DIRECTION('',(6.12323399573677E-017,1.22464679914735E-016,-1.0));
#398=DIRECTION('',(-1.23259516440783E-032,1.0,1.22464679914735E-016));
#399=CARTESIAN_POINT('',(-6.23345220766003E-015,-1.24669044153201E-014,101.8));
#400=DIRECTION('',(6.12323399573677E-017,1.22464679914735E-016,-1.0));
#401=DIRECTION('',(-1.23259516440783E-032,1.0,1.22464679914735E-016));
ENDSEC;
END-ISO-10303-21;
