ISO-10303-21;
HEADER;
FILE_DESCRIPTION((''),'1');
FILE_NAME('//Big_tech03/bigt/Translate/21_\X2\8F2A90ED7DDA\X0\-DXF/62_\X2\30D530A730A430B930DF30EB30A230FC30D0\X0\/04_\X2\30D530A730A430B930DF30EB30A230FC30D0\X0\H\X2\578B\X0\ FMH/BBT/BBT50/BBT50-FMH22-60-150.stp','2012-05-24T06:47:03',(''),(''),'Spatial Interop R18','Kubotek KeyCreator V8.5.1 (14335)',' ');
FILE_SCHEMA(('CONFIG_CONTROL_DESIGN'));
ENDSEC;
DATA;
#1=DESIGN_CONTEXT('',#27,'design');
#2=APPLICATION_PROTOCOL_DEFINITION('INTERNATIONAL STANDARD','config_control_design',1994,#27);
#3=PRODUCT_CATEGORY_RELATIONSHIP('NONE','NONE',#28,#29);
#4=DATE_AND_TIME(#30,#31);
#5=DATE_TIME_ROLE('creation_date');
#6=DATE_TIME_ROLE('classification_date');
#7=PERSON_AND_ORGANIZATION_ROLE('creator');
#8=PERSON_AND_ORGANIZATION_ROLE('design_supplier');
#9=PERSON_AND_ORGANIZATION_ROLE('classification_officer');
#10=PERSON_AND_ORGANIZATION_ROLE('design_owner');
#11=APPROVAL_PERSON_ORGANIZATION(#32,#33,#34);
#12=APPROVAL_DATE_TIME(#4,#33);
#13=CC_DESIGN_APPROVAL(#33,(#35,#36,#37));
#14=CC_DESIGN_DATE_AND_TIME_ASSIGNMENT(#4,#5,(#37));
#15=CC_DESIGN_DATE_AND_TIME_ASSIGNMENT(#4,#6,(#35));
#16=CC_DESIGN_PERSON_AND_ORGANIZATION_ASSIGNMENT(#32,#10,(#38));
#17=CC_DESIGN_PERSON_AND_ORGANIZATION_ASSIGNMENT(#32,#7,(#37));
#18=CC_DESIGN_PERSON_AND_ORGANIZATION_ASSIGNMENT(#32,#7,(#36));
#19=CC_DESIGN_PERSON_AND_ORGANIZATION_ASSIGNMENT(#32,#8,(#36));
#20=CC_DESIGN_SECURITY_CLASSIFICATION(#35,(#36));
#21=CC_DESIGN_PERSON_AND_ORGANIZATION_ASSIGNMENT(#32,#9,(#35));
#22=SHAPE_DEFINITION_REPRESENTATION(#39,#40);
#23= (GEOMETRIC_REPRESENTATION_CONTEXT(3)GLOBAL_UNCERTAINTY_ASSIGNED_CONTEXT((#43))GLOBAL_UNIT_ASSIGNED_CONTEXT((#45,#46,#47))REPRESENTATION_CONTEXT('NONE','WORKSPACE'));
#27=APPLICATION_CONTEXT('CONFIGURATION CONTROLLED 3D DESIGNS OF MECHANICAL PARTS AND ASSEMBLIES');
#28=PRODUCT_CATEGORY('part','NONE');
#29=PRODUCT_RELATED_PRODUCT_CATEGORY('detail',' ',(#38));
#30=CALENDAR_DATE(2012,24,4);
#31=LOCAL_TIME(15,47,3.0,#49);
#32=PERSON_AND_ORGANIZATION(#50,#51);
#33=APPROVAL(#52,'SOLID MODEL');
#34=APPROVAL_ROLE('APPROVED');
#35=SECURITY_CLASSIFICATION('','',#53);
#36=PRODUCT_DEFINITION_FORMATION_WITH_SPECIFIED_SOURCE(' ','NONE',#38,.NOT_KNOWN.);
#37=PRODUCT_DEFINITION('NONE','NONE',#36,#1);
#38=PRODUCT('1','1','PART-1-DESC',(#54));
#39=PRODUCT_DEFINITION_SHAPE('NONE','NONE',#37);
#40=ADVANCED_BREP_SHAPE_REPRESENTATION('1',(#55,#56),#23);
#43=UNCERTAINTY_MEASURE_WITH_UNIT(LENGTH_MEASURE(1.0E-006),#45,'','');
#45= (CONVERSION_BASED_UNIT('MILLIMETRE',#59)LENGTH_UNIT()NAMED_UNIT(#62));
#46= (NAMED_UNIT(#64)PLANE_ANGLE_UNIT()SI_UNIT($,.RADIAN.));
#47= (NAMED_UNIT(#64)SOLID_ANGLE_UNIT()SI_UNIT($,.STERADIAN.));
#49=COORDINATED_UNIVERSAL_TIME_OFFSET(9,0,.AHEAD.);
#50=PERSON('','UNSPECIFIED',$,$,$,$);
#51=ORGANIZATION('UNSPECIFIED','UNSPECIFIED','UNSPECIFIED');
#52=APPROVAL_STATUS('approved');
#53=SECURITY_CLASSIFICATION_LEVEL('unclassified');
#54=MECHANICAL_CONTEXT('',#27,'mechanical');
#55=MANIFOLD_SOLID_BREP('1',#70);
#56=AXIS2_PLACEMENT_3D('',#71,#72,#73);
#59=LENGTH_MEASURE_WITH_UNIT(LENGTH_MEASURE(1.0),#74);
#62=DIMENSIONAL_EXPONENTS(1.0,0.0,0.0,0.0,0.0,0.0,0.0);
#64=DIMENSIONAL_EXPONENTS(0.0,0.0,0.0,0.0,0.0,0.0,0.0);
#70=CLOSED_SHELL('',(#75,#76,#77,#78,#79,#80,#81,#82,#83,#84,#85,#86,#87,#88,#89));
#71=CARTESIAN_POINT('',(0.0,0.0,0.0));
#72=DIRECTION('',(0.0,0.0,1.0));
#73=DIRECTION('',(1.0,0.0,0.0));
#74= (NAMED_UNIT(#62)LENGTH_UNIT()SI_UNIT(.MILLI.,.METRE.));
#75=ADVANCED_FACE('',(#91,#92),#93,.T.);
#76=ADVANCED_FACE('',(#94,#95),#96,.T.);
#77=ADVANCED_FACE('',(#97,#98),#99,.T.);
#78=ADVANCED_FACE('',(#100,#101),#102,.T.);
#79=ADVANCED_FACE('',(#103,#104),#105,.T.);
#80=ADVANCED_FACE('',(#106,#107),#108,.T.);
#81=ADVANCED_FACE('',(#109,#110),#111,.T.);
#82=ADVANCED_FACE('',(#112,#113),#114,.T.);
#83=ADVANCED_FACE('',(#115,#116),#117,.T.);
#84=ADVANCED_FACE('',(#118,#119),#120,.T.);
#85=ADVANCED_FACE('',(#121,#122),#123,.T.);
#86=ADVANCED_FACE('',(#124,#125),#126,.T.);
#87=ADVANCED_FACE('',(#127),#128,.T.);
#88=ADVANCED_FACE('',(#129),#130,.T.);
#89=ADVANCED_FACE('',(#131,#132),#133,.T.);
#91=FACE_BOUND('',#134,.T.);
#92=FACE_BOUND('',#135,.T.);
#93=CYLINDRICAL_SURFACE('',#136,34.9249999999995);
#94=FACE_OUTER_BOUND('',#137,.T.);
#95=FACE_BOUND('',#138,.T.);
#96=PLANE('',#139);
#97=FACE_BOUND('',#140,.T.);
#98=FACE_BOUND('',#141,.T.);
#99=CYLINDRICAL_SURFACE('',#142,49.9999999999995);
#100=FACE_BOUND('',#143,.T.);
#101=FACE_BOUND('',#144,.T.);
#102=CONICAL_SURFACE('',#145,46.2499999999995,1.0471975511966);
#103=FACE_BOUND('',#146,.T.);
#104=FACE_BOUND('',#147,.T.);
#105=CYLINDRICAL_SURFACE('',#148,42.4999999999995);
#106=FACE_BOUND('',#149,.T.);
#107=FACE_BOUND('',#150,.T.);
#108=CONICAL_SURFACE('',#151,46.2499999999995,1.0471975511966);
#109=FACE_BOUND('',#152,.T.);
#110=FACE_BOUND('',#153,.T.);
#111=CYLINDRICAL_SURFACE('',#154,49.9999999999995);
#112=FACE_BOUND('',#155,.T.);
#113=FACE_OUTER_BOUND('',#156,.T.);
#114=PLANE('',#157);
#115=FACE_BOUND('',#158,.T.);
#116=FACE_BOUND('',#159,.T.);
#117=CONICAL_SURFACE('',#160,31.5,0.785398163397448);
#118=FACE_BOUND('',#161,.T.);
#119=FACE_BOUND('',#162,.T.);
#120=CYLINDRICAL_SURFACE('',#163,30.0);
#121=FACE_BOUND('',#164,.T.);
#122=FACE_OUTER_BOUND('',#165,.T.);
#123=PLANE('',#166);
#124=FACE_BOUND('',#167,.T.);
#125=FACE_BOUND('',#168,.T.);
#126=CYLINDRICAL_SURFACE('',#169,11.0);
#127=FACE_OUTER_BOUND('',#170,.T.);
#128=PLANE('',#171);
#129=FACE_OUTER_BOUND('',#172,.T.);
#130=PLANE('',#173);
#131=FACE_BOUND('',#174,.T.);
#132=FACE_BOUND('',#175,.T.);
#133=CONICAL_SURFACE('',#176,27.5020833333329,0.144812498238938);
#134=EDGE_LOOP('',(#177));
#135=EDGE_LOOP('',(#178));
#136=AXIS2_PLACEMENT_3D('',#179,#180,#181);
#137=EDGE_LOOP('',(#182));
#138=EDGE_LOOP('',(#183));
#139=AXIS2_PLACEMENT_3D('',#184,#185,#186);
#140=EDGE_LOOP('',(#187));
#141=EDGE_LOOP('',(#188));
#142=AXIS2_PLACEMENT_3D('',#189,#190,#191);
#143=EDGE_LOOP('',(#192));
#144=EDGE_LOOP('',(#193));
#145=AXIS2_PLACEMENT_3D('',#194,#195,#196);
#146=EDGE_LOOP('',(#197));
#147=EDGE_LOOP('',(#198));
#148=AXIS2_PLACEMENT_3D('',#199,#200,#201);
#149=EDGE_LOOP('',(#202));
#150=EDGE_LOOP('',(#203));
#151=AXIS2_PLACEMENT_3D('',#204,#205,#206);
#152=EDGE_LOOP('',(#207));
#153=EDGE_LOOP('',(#208));
#154=AXIS2_PLACEMENT_3D('',#209,#210,#211);
#155=EDGE_LOOP('',(#212));
#156=EDGE_LOOP('',(#213));
#157=AXIS2_PLACEMENT_3D('',#214,#215,#216);
#158=EDGE_LOOP('',(#217));
#159=EDGE_LOOP('',(#218));
#160=AXIS2_PLACEMENT_3D('',#219,#220,#221);
#161=EDGE_LOOP('',(#222));
#162=EDGE_LOOP('',(#223));
#163=AXIS2_PLACEMENT_3D('',#224,#225,#226);
#164=EDGE_LOOP('',(#227));
#165=EDGE_LOOP('',(#228));
#166=AXIS2_PLACEMENT_3D('',#229,#230,#231);
#167=EDGE_LOOP('',(#232));
#168=EDGE_LOOP('',(#233));
#169=AXIS2_PLACEMENT_3D('',#234,#235,#236);
#170=EDGE_LOOP('',(#237));
#171=AXIS2_PLACEMENT_3D('',#238,#239,#240);
#172=EDGE_LOOP('',(#241));
#173=AXIS2_PLACEMENT_3D('',#242,#243,#244);
#174=EDGE_LOOP('',(#245));
#175=EDGE_LOOP('',(#246));
#176=AXIS2_PLACEMENT_3D('',#247,#248,#249);
#177=ORIENTED_EDGE('',*,*,#250,.F.);
#178=ORIENTED_EDGE('',*,*,#251,.T.);
#179=CARTESIAN_POINT('',(4.59242549680553E-017,9.18485099361106E-017,-0.750000000000483));
#180=DIRECTION('',(-6.12323399573677E-017,-1.22464679914735E-016,1.0));
#181=DIRECTION('',(-1.23259516440783E-032,1.0,1.22464679914735E-016));
#182=ORIENTED_EDGE('',*,*,#252,.F.);
#183=ORIENTED_EDGE('',*,*,#250,.T.);
#184=CARTESIAN_POINT('',(9.1848509936082E-017,42.4624999999995,-1.5000000000005));
#185=DIRECTION('',(-6.12323399573677E-017,-6.08809386643758E-014,1.0));
#186=DIRECTION('',(3.73270948595148E-030,-1.0,-6.08809386643758E-014));
#187=ORIENTED_EDGE('',*,*,#253,.F.);
#188=ORIENTED_EDGE('',*,*,#252,.T.);
#189=CARTESIAN_POINT('',(5.26598123633362E-016,1.05319624726672E-015,-8.59999999999999));
#190=DIRECTION('',(-6.12323399573677E-017,-1.22464679914735E-016,1.0));
#191=DIRECTION('',(-1.23259516440783E-032,1.0,1.22464679914735E-016));
#192=ORIENTED_EDGE('',*,*,#254,.F.);
#193=ORIENTED_EDGE('',*,*,#253,.T.);
#194=CARTESIAN_POINT('',(1.09391964217128E-015,2.18783928434256E-015,-17.865063509461));
#195=DIRECTION('',(-6.12323399573676E-017,-1.22464679914735E-016,1.0));
#196=DIRECTION('',(-1.23259516440783E-032,1.0,1.22464679914735E-016));
#197=ORIENTED_EDGE('',*,*,#255,.F.);
#198=ORIENTED_EDGE('',*,*,#254,.T.);
#199=CARTESIAN_POINT('',(1.42059028701093E-015,2.84118057402185E-015,-23.1999999999999));
#200=DIRECTION('',(-6.12323399573677E-017,-1.22464679914735E-016,1.0));
#201=DIRECTION('',(-1.23259516440783E-032,1.0,1.22464679914735E-016));
#202=ORIENTED_EDGE('',*,*,#256,.F.);
#203=ORIENTED_EDGE('',*,*,#255,.T.);
#204=CARTESIAN_POINT('',(1.74726093185057E-015,3.49452186370114E-015,-28.5349364905388));
#205=DIRECTION('',(6.12323399573676E-017,1.22464679914735E-016,-1.0));
#206=DIRECTION('',(-1.23259516440783E-032,1.0,1.22464679914735E-016));
#207=ORIENTED_EDGE('',*,*,#257,.F.);
#208=ORIENTED_EDGE('',*,*,#256,.T.);
#209=CARTESIAN_POINT('',(2.1033308775356E-015,4.20666175507119E-015,-34.3500000000003));
#210=DIRECTION('',(-6.12323399573677E-017,-1.22464679914735E-016,1.0));
#211=DIRECTION('',(-1.23259516440783E-032,1.0,1.22464679914735E-016));
#212=ORIENTED_EDGE('',*,*,#258,.F.);
#213=ORIENTED_EDGE('',*,*,#257,.T.);
#214=CARTESIAN_POINT('',(2.32682891838001E-015,41.4999999999998,-38.0000000000006));
#215=DIRECTION('',(6.12323399573677E-017,1.22464679914735E-016,-1.0));
#216=DIRECTION('',(-1.23259516440783E-032,1.0,1.22464679914735E-016));
#217=ORIENTED_EDGE('',*,*,#259,.F.);
#218=ORIENTED_EDGE('',*,*,#258,.T.);
#219=CARTESIAN_POINT('',(2.41867742831606E-015,4.83735485663212E-015,-39.5000000000006));
#220=DIRECTION('',(-6.12323399573677E-017,-1.22464679914735E-016,1.0));
#221=DIRECTION('',(-1.23259516440783E-032,1.0,1.22464679914735E-016));
#222=ORIENTED_EDGE('',*,*,#260,.F.);
#223=ORIENTED_EDGE('',*,*,#259,.T.);
#224=CARTESIAN_POINT('',(5.84768846592865E-015,1.16953769318573E-014,-95.5000000000006));
#225=DIRECTION('',(-6.12323399573677E-017,-1.22464679914735E-016,1.0));
#226=DIRECTION('',(-1.23259516440783E-032,1.0,1.22464679914735E-016));
#227=ORIENTED_EDGE('',*,*,#261,.F.);
#228=ORIENTED_EDGE('',*,*,#260,.T.);
#229=CARTESIAN_POINT('',(9.18485099360519E-015,20.5,-150.000000000001));
#230=DIRECTION('',(6.12323399573677E-017,1.22464679914735E-016,-1.0));
#231=DIRECTION('',(-1.23259516440783E-032,1.0,1.22464679914735E-016));
#232=ORIENTED_EDGE('',*,*,#262,.F.);
#233=ORIENTED_EDGE('',*,*,#261,.T.);
#234=CARTESIAN_POINT('',(9.73594205322149E-015,1.9471884106443E-014,-159.000000000001));
#235=DIRECTION('',(-6.12323399573677E-017,-1.22464679914735E-016,1.0));
#236=DIRECTION('',(-1.23259516440783E-032,1.0,1.22464679914735E-016));
#237=ORIENTED_EDGE('',*,*,#262,.T.);
#238=CARTESIAN_POINT('',(1.02870331128378E-014,5.50000000000002,-168.000000000001));
#239=DIRECTION('',(6.12323399573677E-017,1.22464679914735E-016,-1.0));
#240=DIRECTION('',(-1.23259516440783E-032,1.0,1.22464679914735E-016));
#241=ORIENTED_EDGE('',*,*,#263,.F.);
#242=CARTESIAN_POINT('',(-6.23345220766003E-015,10.0395833333331,101.8));
#243=DIRECTION('',(-6.12323399573677E-017,-1.22464679914735E-016,1.0));
#244=DIRECTION('',(1.23259516440783E-032,-1.0,-1.22464679914735E-016));
#245=ORIENTED_EDGE('',*,*,#251,.F.);
#246=ORIENTED_EDGE('',*,*,#263,.T.);
#247=CARTESIAN_POINT('',(-3.11672610383001E-015,-6.23345220766003E-015,50.9));
#248=DIRECTION('',(6.12323399573677E-017,1.22464679914735E-016,-1.0));
#249=DIRECTION('',(-1.23259516440783E-032,1.0,1.22464679914735E-016));
#250=EDGE_CURVE('',#264,#264,#265,.T.);
#251=EDGE_CURVE('',#266,#266,#267,.T.);
#252=EDGE_CURVE('',#268,#268,#269,.T.);
#253=EDGE_CURVE('',#270,#270,#271,.T.);
#254=EDGE_CURVE('',#272,#272,#273,.T.);
#255=EDGE_CURVE('',#274,#274,#275,.T.);
#256=EDGE_CURVE('',#276,#276,#277,.T.);
#257=EDGE_CURVE('',#278,#278,#279,.T.);
#258=EDGE_CURVE('',#280,#280,#281,.T.);
#259=EDGE_CURVE('',#282,#282,#283,.T.);
#260=EDGE_CURVE('',#284,#284,#285,.T.);
#261=EDGE_CURVE('',#286,#286,#287,.T.);
#262=EDGE_CURVE('',#288,#288,#289,.T.);
#263=EDGE_CURVE('',#290,#290,#291,.T.);
#264=VERTEX_POINT('',#292);
#265=CIRCLE('',#293,34.9249999999995);
#266=VERTEX_POINT('',#294);
#267=CIRCLE('',#295,34.9249999999996);
#268=VERTEX_POINT('',#296);
#269=CIRCLE('',#297,49.9999999999995);
#270=VERTEX_POINT('',#298);
#271=CIRCLE('',#299,49.9999999999995);
#272=VERTEX_POINT('',#300);
#273=CIRCLE('',#301,42.4999999999995);
#274=VERTEX_POINT('',#302);
#275=CIRCLE('',#303,42.4999999999995);
#276=VERTEX_POINT('',#304);
#277=CIRCLE('',#305,49.9999999999995);
#278=VERTEX_POINT('',#306);
#279=CIRCLE('',#307,49.9999999999995);
#280=VERTEX_POINT('',#308);
#281=CIRCLE('',#309,33.0);
#282=VERTEX_POINT('',#310);
#283=CIRCLE('',#311,30.0);
#284=VERTEX_POINT('',#312);
#285=CIRCLE('',#313,30.0);
#286=VERTEX_POINT('',#314);
#287=CIRCLE('',#315,11.0);
#288=VERTEX_POINT('',#316);
#289=CIRCLE('',#317,11.0);
#290=VERTEX_POINT('',#318);
#291=CIRCLE('',#319,20.0791666666663);
#292=CARTESIAN_POINT('',(9.18485099361101E-017,34.9249999999995,-1.50000000000096));
#293=AXIS2_PLACEMENT_3D('',#320,#321,#322);
#294=CARTESIAN_POINT('',(-4.30483861169429E-031,34.9249999999996,4.27707894602207E-015));
#295=AXIS2_PLACEMENT_3D('',#323,#324,#325);
#296=CARTESIAN_POINT('',(9.18485099360539E-017,49.9999999999995,-1.50000000000004));
#297=AXIS2_PLACEMENT_3D('',#326,#327,#328);
#298=CARTESIAN_POINT('',(9.61347737330667E-016,49.9999999999995,-15.6999999999999));
#299=AXIS2_PLACEMENT_3D('',#329,#330,#331);
#300=CARTESIAN_POINT('',(1.2264915470119E-015,42.4999999999995,-20.0301270189221));
#301=AXIS2_PLACEMENT_3D('',#332,#333,#334);
#302=CARTESIAN_POINT('',(1.61468902700995E-015,42.4999999999995,-26.3698729810777));
#303=AXIS2_PLACEMENT_3D('',#335,#336,#337);
#304=CARTESIAN_POINT('',(1.87983283669118E-015,49.9999999999995,-30.6999999999999));
#305=AXIS2_PLACEMENT_3D('',#338,#339,#340);
#306=CARTESIAN_POINT('',(2.32682891838001E-015,49.9999999999995,-38.0000000000006));
#307=AXIS2_PLACEMENT_3D('',#341,#342,#343);
#308=CARTESIAN_POINT('',(2.32682891838001E-015,33.0,-38.0000000000006));
#309=AXIS2_PLACEMENT_3D('',#344,#345,#346);
#310=CARTESIAN_POINT('',(2.51052593825211E-015,30.0,-41.0000000000006));
#311=AXIS2_PLACEMENT_3D('',#347,#348,#349);
#312=CARTESIAN_POINT('',(9.18485099360519E-015,30.0,-150.000000000001));
#313=AXIS2_PLACEMENT_3D('',#350,#351,#352);
#314=CARTESIAN_POINT('',(9.18485099360519E-015,11.0,-150.000000000001));
#315=AXIS2_PLACEMENT_3D('',#353,#354,#355);
#316=CARTESIAN_POINT('',(1.02870331128378E-014,11.0,-168.000000000001));
#317=AXIS2_PLACEMENT_3D('',#356,#357,#358);
#318=CARTESIAN_POINT('',(-6.23345220766003E-015,20.0791666666662,101.8));
#319=AXIS2_PLACEMENT_3D('',#359,#360,#361);
#320=CARTESIAN_POINT('',(9.18485099361107E-017,1.83697019872221E-016,-1.50000000000097));
#321=DIRECTION('',(6.12323399573677E-017,1.22464679914735E-016,-1.0));
#322=DIRECTION('',(-1.23259516440783E-032,1.0,1.22464679914735E-016));
#323=CARTESIAN_POINT('',(0.0,0.0,0.0));
#324=DIRECTION('',(6.12323399573676E-017,1.22464679914735E-016,-1.0));
#325=DIRECTION('',(-1.23259516440783E-032,1.0,1.22464679914735E-016));
#326=CARTESIAN_POINT('',(9.18485099360541E-017,1.83697019872108E-016,-1.50000000000004));
#327=DIRECTION('',(6.12323399573677E-017,1.22464679914735E-016,-1.0));
#328=DIRECTION('',(-1.23259516440783E-032,1.0,1.22464679914735E-016));
#329=CARTESIAN_POINT('',(9.61347737330668E-016,1.92269547466134E-015,-15.6999999999999));
#330=DIRECTION('',(6.12323399573677E-017,1.22464679914735E-016,-1.0));
#331=DIRECTION('',(-1.23259516440783E-032,1.0,1.22464679914735E-016));
#332=CARTESIAN_POINT('',(1.2264915470119E-015,2.45298309402379E-015,-20.0301270189221));
#333=DIRECTION('',(6.12323399573677E-017,1.22464679914735E-016,-1.0));
#334=DIRECTION('',(-1.23259516440783E-032,1.0,1.22464679914735E-016));
#335=CARTESIAN_POINT('',(1.61468902700996E-015,3.22937805401991E-015,-26.3698729810777));
#336=DIRECTION('',(6.12323399573677E-017,1.22464679914735E-016,-1.0));
#337=DIRECTION('',(-1.23259516440783E-032,1.0,1.22464679914735E-016));
#338=CARTESIAN_POINT('',(1.87983283669118E-015,3.75966567338237E-015,-30.6999999999999));
#339=DIRECTION('',(6.12323399573677E-017,1.22464679914735E-016,-1.0));
#340=DIRECTION('',(-1.23259516440783E-032,1.0,1.22464679914735E-016));
#341=CARTESIAN_POINT('',(2.32682891838001E-015,4.65365783676002E-015,-38.0000000000006));
#342=DIRECTION('',(6.12323399573677E-017,1.22464679914735E-016,-1.0));
#343=DIRECTION('',(-1.23259516440783E-032,1.0,1.22464679914735E-016));
#344=CARTESIAN_POINT('',(2.32682891838001E-015,4.65365783676002E-015,-38.0000000000006));
#345=DIRECTION('',(6.12323399573677E-017,1.22464679914735E-016,-1.0));
#346=DIRECTION('',(-1.23259516440783E-032,1.0,1.22464679914735E-016));
#347=CARTESIAN_POINT('',(2.51052593825211E-015,5.02105187650422E-015,-41.0000000000006));
#348=DIRECTION('',(6.12323399573677E-017,1.22464679914735E-016,-1.0));
#349=DIRECTION('',(-1.23259516440783E-032,1.0,1.22464679914735E-016));
#350=CARTESIAN_POINT('',(9.18485099360519E-015,1.83697019872104E-014,-150.000000000001));
#351=DIRECTION('',(6.12323399573677E-017,1.22464679914735E-016,-1.0));
#352=DIRECTION('',(-1.23259516440783E-032,1.0,1.22464679914735E-016));
#353=CARTESIAN_POINT('',(9.18485099360519E-015,1.83697019872104E-014,-150.000000000001));
#354=DIRECTION('',(6.12323399573677E-017,1.22464679914735E-016,-1.0));
#355=DIRECTION('',(-1.23259516440783E-032,1.0,1.22464679914735E-016));
#356=CARTESIAN_POINT('',(1.02870331128378E-014,2.05740662256756E-014,-168.000000000001));
#357=DIRECTION('',(6.12323399573677E-017,1.22464679914735E-016,-1.0));
#358=DIRECTION('',(-1.23259516440783E-032,1.0,1.22464679914735E-016));
#359=CARTESIAN_POINT('',(-6.23345220766003E-015,-1.24669044153201E-014,101.8));
#360=DIRECTION('',(6.12323399573677E-017,1.22464679914735E-016,-1.0));
#361=DIRECTION('',(-1.23259516440783E-032,1.0,1.22464679914735E-016));
ENDSEC;
END-ISO-10303-21;
